música
Buscador

Acorde de Love Song - Korn

Letra de Love Song

(intro) Am Dm Em F Em G 



(riff 3x)

E |-----------------------------------------------------------------|

B |-----------------------------------------------------------------|

G |-----------------------------------------------------------------|

D |--7777777777777/6666666666666/5555555555555/44444444/3333/22/11--|

A |--7777777777777/6666666666666/5555555555555/44444444/3333/22/11--|

D |--7777777777777/6666666666666/5555555555555/44444444/3333/22/11--|



Mother!

Your holding my heart, screaming,

“Motherfucker!”

They left me broken, bleeding.

Son of!

The man you loved and left for.

The son of a bitch!

Who tried to show me death's door.



(pre-Refrão)

E |---------------------------|

B |---------------------------|

G |---------------------------|

D |-7777777/8888/66-77777/88--|

A |-7777777/8888/66-77777/88--|

D |-7777777/8888/66-77777/88--| (2x)



Everything's illuminating.

Everything is dedicating.

My belief destroyed my hated?

Never get what's over-rated.



(Refrão)

Am

Love song for the dear departed,

Dm

Head stone for the broken hearted,

Em

Arm's to kill,

F Em G

Or flowers to steal .

Am

Head trip for the mortal earthbound,

Dm

One sip of the blood that I found.

Em

Lying here,

F Em G

I’m dying here.



(Refrão)

E |--------------------------------------------------||

B |--------------------------------------------------||

G |--------------------------------------------------||

D |--------------------------------------------------||

A |--345-353-35-42321--------------------------------||

D |--------------------------------------------------||



(riff 1)

E |-----------------------------------------------------------------|

B |-----------------------------------------------------------------|

G |-----------------------------------------------------------------|

D |--7777777777777/6666666666666/5555555555555/44444444/3333/22/11--|

A |--7777777777777/6666666666666/5555555555555/44444444/3333/22/11--|

D |--7777777777777/6666666666666/5555555555555/44444444/3333/22/11--|



As in!

The bitch who's worries rain down.

Its ok!

We're lying naked face down.



Pre-Chorus:

E |---------------------------|

B |---------------------------|

G |---------------------------|

D |-7777777/8888/66-77777/88--|

A |-7777777/8888/66-77777/88--|

D |-7777777/8888/66-77777/88--| (2x)



Wasn't he decapitated?

https://www.coveralia.com/acordes/love-song-korn.php

Can you see me fascinated?

Your the only thing I’ve damaged,

What you get to be mismanaged?



(Refrão)

Am

Love song for the dear departed,

Dm

Head stone for the broken hearted,

Em

Arm's to kill,

F Em G

Or flowers to steal .

Am

Head trip for the mortal earthbound,

Dm

One sip of the blood that I found.

Em

Lying here,

F Em G

I’m dying here.



(Refrão)

E |--------------------------------------------------||

B |--------------------------------------------------||

G |--------------------------------------------------||

D |--------------------------------------------------||

A |--345-353-35-42321--------------------------------||

D |--------------------------------------------------||



(ponte 2x)

E |----------------------------------------|

B |----------------------------------------|

G |----------------------------------------|

D |----------------------------------------|

A |--0030-303--0050-505—0040-404-0030-303--|

D |--0030-303--0050-505—0040-404-0030-303--|



E |-----------------------------------------------|

B |-----------------------------------------------|

G |--5---------5-/-5--------5-/-------------------|

D |--5---------5-/-5--------5-/-----------54-323--|

A |--3---------3-/-3--------3-/-3210-201--32-101--|

E |---30xxxx30x--/--30xxx30x--/-------------------| (3x)



Don't bring me daffodils,

Bring a Bouquet of Pills.

See some geraniums?

Cracked to the cranium.

Protect me when you can.

Just strike me when I am,

Dying.



(Refrão 2x)

Am

Love song for the dear departed,

Dm

Head stone for the broken hearted,

Em

Arm's to kill,

F Em G

Or flowers to steal .

Am

Head trip for the mortal earthbound,

Dm

One sip of the blood that I found.

Em

Lying here,

F Em G

I’m dying here.



(Refrão)

E |--------------------------------------------------||

B |--------------------------------------------------||

G |--------------------------------------------------||

D |--------------------------------------------------||

A |--345-353-35-42321--------------------------------||

D |--------------------------------------------------||

Letra subida por: Anónimo

El acorde de Love Song de Korn es una versión de la canción original realizada por colaboradores/usuarios de Coveralia.

¿Has encontrado algún error en esta página? Envíanos tu corrección del acorde