música
Buscador

Acorde de Love Love, Kiss Kiss - Alkaline Trio

Letra de Love Love, Kiss Kiss





Intro

e|-3-----3-----3-----7---7----8---8------------------------------------------|

B|---3-----3-----3-----7---7----8---8----------------------------------------|

G|-----0-----0---------------------------------------------------------------|

D|---------------------------------------------------------------------------|

A|---------------------------------------------------------------------------|

E|---------------------------------------------------------------------------|



G B C

Take a look, you see I painted you a picture

G B C

It's black and white, except the blood's a little richer

E B C

Down in the corner where I gave it my signature

E C D

Then I titled it, "This one's for the winter"

G C D

Check it out you see it's just a big disaster





G B C G

I'll dedicate it to the fact that it's so hard for you to dream

B C E

A million heartbeats all around you make it hard to sleep

B C E

It doesn't help you're freezing in your bed, your blankets aren't enough

C D G

All you want is someone there, and all you say is, "So what"





C D G

Love love, kiss kiss... blah blah blah

C D E

You're making me sick, I wish you'd just stop showing off

C D E

For the rest of us that no one wants to love

C D G

It's hard enough trying to drink another winter all alone

C D G C D

Love love, kiss kiss... blah blah blah





[Repeat intro]



G B

G

Well do you find you like to fall in love with people that you're never gonna meet?

B C E

It's easier than breaking up and crying in the street

B C E

Do you curse the happy couple? Do you cringe at wedding bells?

C D G

Do you drink up all the punch while you wish 'em all to hell?





C D G

Love love, kiss kiss... blah blah blah

C D E

You're making me sick, I wish you'd just stop showing off

https://www.coveralia.com/acordes/love-love--kiss-kiss-alkaline-trio.php

C D E

For the rest of us that no one wants to love

C D G

It's hard enough trying to drink another winter all alone

C D G C D

Love love, kiss kiss... blah blah blah





E G D C E

You can't escape this fatal case of melancholia

G D E

It's in your face, in every place you go... it's stalking you

G D C D

There are days when we all say we feel we just can't go on

C D

But you've felt this way all along





e|-3-----3-----3-----8---8----10----10---------------------------------------|

B|---3-----3-----3-----8---8-----10----10------------------------------------|

G|-----0-----0---------------------------------------------------------------|

D|---------------------------------------------------------------------------|

A|---------------------------------------------------------------------------|

E|---------------------------------------------------------------------------|

[play hook x2 until E]



Love love, kiss kiss... blah blah blah

E

You're making me sick, I wish you'd just stop showing off

C D E

For the rest of us that no one wants to love

C D G

It's hard enough trying to drink another winter all alone

C D G

Love love, kiss kiss... blah blah blah





C D G C D

Oh, love love love, kiss kiss... blah blah blah

C D E

You're making me sick, I wish you'd just stop showing off

C D E

For the rest of us that no one wants to love

C D G

It's hard enough trying to drink another winter all alone

C D G

Love love, kiss kiss... blah blah blah



Let final G ring.



Chords:

e|--------------------------|

B|--------------------------|

G|-------4----5----7--------|

D|--5----4----5----7----2---|

A|--5----2----3----5----2---|

E|--3-------------------0---|

G B C D E





Letra subida por: Anónimo

Discos en los que aparece este acorde: Agony & Irony

El acorde de Love Love, Kiss Kiss de Alkaline Trio es una versión de la canción original realizada por colaboradores/usuarios de Coveralia.

¿Has encontrado algún error en esta página? Envíanos tu corrección del acorde