música
Buscador

Acorde de Lost! - Coldplay

Letra de Lost!

INTRO: Em7 - C - G - D     x2 



VERSE 1:

Em7 C G

Just because I'm losing

D Em7 C G

Doesn't mean I'm lost

D Em7 C G

Doesn't mean I'll stop

D Em7 C G D

Doesn't mean I would cross



VERSE 2:



Em7 C G

Just because I'm hurting

D Em7 C G

Doesn't mean I'm hurt

D Em7 C G

Doesn't mean I didn't get what I deserved

D Em7 C G

No better and no worse



Chorus:

D

I just got lost

C G D

Every river that I tried to cross

C G D

Every door I ever tried was locked

C

Ohhh and I'm...

G D

Just waiting 'til the shine wears off



VERSE 3:



Em7 C G

You might be a big fish

D Em7 C G

In a little pond

D Em7

Doesn't mean you've won

C G D Em7 C G

'Cause along may come a bigger one





Chorus:

https://www.coveralia.com/acordes/lost--coldplay.php

D

And you'll be lost

C G D

Every river that you tried to cross

C G D

Every gun you ever held went off

C

Ohhh and I'm...

G D

Just waiting 'til the firing stops

C

Ohhh and I'm...

G D

Just waiting 'til the shine wears off





ocultar esta pestaña SOLO: Em7+ - C D Bm x4



E|------10--12-12-12-12---------7----10-10-10-10----|

B|-----------------------8-7777-------------------7-|

G|-9999---------------------------------------------|

D|--------------------------------------------------| x4

A|--------------------------------------------------|

E|--------------------------------------------------|





OUTRO:

C

Ohhh and I'm...

G D

Just waiting 'til the shine wears off

C

Ohhh and I'm...

G D

Just waiting 'til the shine wears off



C - G - D (with Chorus riff) x2

E|----------8---|-----------6------|

B|-------6------|--------4---------|

G|-6--8---------|--5--6------------|

D|--------------|------------------|

A|--------------|------------------|

E|--------------|------------------|





Em7 - C - G - D |clearly two times

Em7 - C - G |and then fading

Letra subida por: Anónimo

¿Has encontrado algún error en esta página? Envíanos tu corrección del acorde