música
Buscador

Acorde de Losing A Whole Year - Third Eye Blind

Letra de Losing A Whole Year





Intro:

A E B

e|---------0---------|---------0---------|---|

B|-------2-----2-----|-------------0-----|-4-|

G|-----2-----2-------|-------1---1-------|-4-|

D|---2-----------2---|-----2---------2---|-4-|

A|-0---------------0-|---2-------------2-|-2-|

E|-------------------|-0-----------------|---|





Chorus:

A E B

e|-0-0-0-0-0-0-0-0-|-0-0-0-0-0-0-0-0-|-2-2-2-2-2-2-2-2-|

B|-2-2-2-2-2-2-2-2-|-0-0-0-0-0-0-0-0-|-4-4-4-4-4-4-4-4-|

G|-2-2-2-2-2-2-2-2-|-1-1-1-1-1-1-1-1-|-4-4-4-4-4-4-4-4-|

D|-2-2-2-2-2-2-2-2-|-2-2-2-2-2-2-2-2-|-4-4-4-4-4-4-4-4-|

A|-0-0-0-0-0-0-0-0-|-2-2-2-2-2-2-2-2-|-2-2-2-2-2-2-2-2-|

E|-0-0-0-0-0-0-0-0-|-0-0-0-0-0-0-0-0-|-2-2-2-2-2-2-2-2-|



B

E|-2-2-2-2-2-2-2-2-|

B|-4-4-4-4-4-4-4-4-|

G|-4-4-4-4-4-4-4-4-|

D|-4-4-4-4-4-4-4-4-|

A|-2-2-2-2-2-2-2-2-|

E|-2-2-2-2-2-2-2-2-|



Lyrics:



Losing a whole year

Losing a whole year

I remember you and me used to spend

The whole goddamned day in bed

Losing a whole year

Hiding in your room we'd lay like dogs

And the phone would ring like a joke left unsaid

Losing a whole year



And now I realize you never heard

One goddamned word I ever said

Losing a whole year

Losing a whole year



And I remember you and me used to spend

The whole goddamned day in bed

Losing a whole year



Losing a whole year

I remember you and me used to spend

The whole goddamned day in bed



*Ends on "Hey, Hey"*



Verse:



A E B

e|-0-X-0-0-0-0-X-0-|-0-X-0-0-0-0-X-0-|-2-X-2-2-2-2-X-2-|

B|-2-X-2-2-2-2-X-2-|-0-X-0-0-0-0-X-0-|-4-X-4-4-4-4-X-4-|

G|-2-X-2-2-2-2-X-2-|-1-X-1-1-1-1-X-1-|-4-X-4-4-4-4-X-4-|

D|-2-X-2-2-2-2-X-2-|-2-X-2-2-2-2-X-2-|-4-X-4-4-4-4-X-4-|

A|-0-X-0-0-0-0-X-0-|-2-X-2-2-2-2-X-2-|-2-X-2-2-2-2-X-2-|

E|-0-X-0-0-0-0-X-0-|-0-X-0-0-0-0-X-0-|-2-X-2-2-2-2-X-2-|



https://www.coveralia.com/acordes/losing-a-whole-year-third-eye-blind.php

B

E|-2-X-2-2-2-2-X-2-|

B|-4-X-4-4-4-4-X-4-|

G|-4-X-4-4-4-4-X-4-|

D|-4-X-4-4-4-4-X-4-|

A|-2-X-2-2-2-2-X-2-|

E|-2-X-2-2-2-2-X-2-|



Lyrics:



Rich daddy left you with a parachute

Your voice is sounds like money and your face is cute

But your daddy left you with no love

And you touch everything with a velvet glove and

Now you want to try a life of sin

You want to be down with the down and in

Always copping my truths

I kind of get the feeling like I'm being used



Took your stuff and put it in the basement

When I found out what the smile on your face meant

I've seen you pop that check

Craning your neck at the car wreck

It always seems the juice used to flow

In the car, in the kitchen, you were good to go

Now we're stuck with the tube

A sink full of dishes and some aqua lube



And if it's not the defense, then you're on the attack

When you start talking, I hear the Prozac

Convinced you've found your place

With the pierced queer teens in cyberspace

When youwere yourself it tasted sweet

But it sours into a routine deceit

Well this drama is bore

And doesn't want to play no more



Bridge:



A

e|-0-0-0-0-|-0-0-0-X-|-0-0-0-0-|-0-0-0-X-X-|

B|-2-2-2-2-|-2-2-2-X-|-2-2-2-2-|-2-2-2-X-X-|

G|-2-2-2-2-|-2-2-2-X-|-2-2-2-2-|-2-2-2-X-X-|

D|-2-2-2-2-|-2-2-2-X-|-2-2-2-2-|-2-2-2-X-X-|

A|-0-0-0-0-|-0-0-0-X-|-0-0-0-0-|-0-0-0-X-X-|

E|-0-0-0-0-|-0-0-0-X-|-0-0-0-0-|-0-0-0-X-X-|



































Letra subida por: Anónimo

Discos en los que aparece este acorde: A Collection

El acorde de Losing A Whole Year de Third Eye Blind es una versión de la canción original realizada por colaboradores/usuarios de Coveralia.

¿Has encontrado algún error en esta página? Envíanos tu corrección del acorde