música
Buscador

Acorde de Los Sicarios - Narco

Letra de Los Sicarios



*(Esta parte se toca con bajo pero si

se toca asi con guitarra suena bien)

X 8 X 20 X 3

-|--------------| |---------------------| |-----------------------|-

-|--------------| |---------------------| |-----------------------|-

-|--------------| |---------------------| |--7--7--9--------------|-

-|--2--5--7--8--| |-----------------7---| |-----------8--7--5-----|-

-|--2--5--7--8--| |--------7--6--5------| |---------------------7-|-

-|--0--3--5--6--| |--0--3---------------| |-----------------------|-

*

Pobreza miseria nacemos para... fuistes el unico mas que...





X 8 X 16

-|------------------------| |-------------| |-------------------|-

-|------------------------| |-------------| |-------------------|-

-|-7--7--9----------------| |-------------| |-------------------|-

-|-7--7--9--8--7--5--2----| |-2--5--7--8--| |-----------------7-|-

-|-5--5--7--8--7--5--2----| |-2--5--7--8--| |--------7--6--5----|-

-|----------6--5--3--0----| |-0--3--5--6--| |--0--3-------------|-

*

que se jodan nuestros enemigos Y nunca pediran... La selva te enseña a...





X 3 X 8

-|------------------------| |-----------------------| |-----------|

-|------------------------| |-----------------------| |-----------|

-|--7--7--9---------------| |--7--7--9--------------| |-----------|

-|-----------8--7--5------| |--7--7--9--8--7--5--2--| |2--5--7--8-|

-|--------------------7---| |--5--5--7--8--7--5--2--| |2--5--7--8-|

-|------------------------| |-----------6--5--3--0--| |0--3--5--5-|



y es mejor una tumba, una muerte en los Estados Unidos de mierda Y nunca.....





X 8

-|---------------|--

-|---------------|--

-|---------------|-- *(ESTA PARTE UN POCO MAS RAPIDA)

-|-2--5--7--8----|--

-|-2--5--7--8----|--

-|-0--3--5--6----|--

*



/*Bandas de pajaros, despachadas por hacendados y conservadores......*/

(En esta parte no hay guitarra)





X 8 X 8

-|------------------------------| |-------------------------|--

-|------------------------------| |-------------------------|--

-|--7--7--9----7--7--7--7----9--| |--7--7--9----------------|--

-|--7--7--9----7--7--7--7----9--| |--7--7--9--9--7--5--2----|--

-|--5--5--7----5--5--5--5----7--| |--5--5--7--9--7--5--2----|--

-|------------------------------| |-----------7--5--3--0----|--



Tiempo de represion no se traga, vomitar... Renunciamos a la vida si no queda dignidad...





X 12 X 8

-|------------------------------| |-------------------------|---

-|------------------------------| |-------------------------|---

-|--7--7--9----7--7--7--7----9--| |--7--7--9----------------|---

-|--7--7--9----7--7--7--7----9--| |--7--7--9--8--7--5--2----|---

-|--5--5--7----5--5--5--5----7--| |--5--5--7--8--7--5--2----|---

-|------------------------------| |-----------6--5--3--0----|---

https://www.coveralia.com/acordes/los-sicarios-narco.php

Y encima el brote de savia que alimenta... Lo que es droga para pijos es el pan de..





X 8 X 7

-|--------------| |------------------------|

-|--------------| |------------------------|

-|--------------| |--7--7--9---------------|

-|--2--5--7--8--| |--7--7--9--8--7--5--2---|

-|--2--5--7--8--| |--5--5--7--8--7--5--2---|

-|--0--3--5--6--| |-----------6--5--3--0---|



Y nunca pediran... Los Sicarios son, los Sicarios...





-|--------------------------------------|

-|--------------------------------------|

-|--7--7--9-----------------------------|

-|--7--7--9-----2--2--2--2--2--2----2---|

-|--5--5--7-----2--2--2--2--2--2----2---|

-|--------------0--0--0--0--0--0----0---|

FINAL





Pa los que no tienen la letra de la cancion ahi les va........





Pobreza, miseria, nacemos para morir, mas de 70.000 civiles muertos en Medellin.

Con menos de 15 años, caras de inocentes, sus manos manchadas de sangre,

cualquier foto es un muñeco de dos tiros en la frente.



Me enrole porque los militares mataron a mis hermanos, por Pablo tu me enseñaste

a vivir en esta mierda a lo grande. Fuistes el unico, mas que un amigo,

siempre estaras con nosotros, que se jodan nuestros enemigos.



Y nunca pediran, no pediran perdon, al muñeco cabron, los sicarios son.....



La selva te enseña a usar el fusco sin miedo, a hacerte un hombre rapido

y a ganar mucho dinero. El jefe nos mima, nos trata como a su familia,

pero respeta la regla de oro, el que esnifa muere.

Gracias a los narcodolares salvamos nuestro pais, dinero manchado ¿de que?,

del sudor de nuestra tierra. Es mejor una tumba, una muerte en Medellin,

que estar prisionero en los de mierda.



Y nunca pediran, no pediran perdon, al muñeco cabron, los sicarios son.....



Bandas de pajaros, despachadas por hacendados y conservadores, parieron el matonismo.

Bandas de pajaros, despachadas por hacendados y conservadores, gente luchando dilo,

parieron el matonismo.



Tiempo de represion no se traga, vomitar rabia es ley de vida y eso solo se hace con venganza,

con odio y con fuerza de familia. Nada podemos perder si es que vivimos de nada.

Si Satan oferta fuerza, les vendemos nuestras almas.



Renunciamos a la vida si no queda dignidad reventandonos por dentro,

trabajando vuestras tierras, defendiendo nuestro pan,

derritiendo nuestra sangre para dar felicidad.

Y encima el brote de savia que alimenta a nuestra gente, ahora quieren cortar.

Demostramos que en la tierra que da pan jamas se debe quemar.



Lo que es droga para pijos es el pan de nuestros hijos. Todo no es vicio ni mierda

sino familias que viven de trabajar vuestras tierras.



Y nunca pediran, no pediran perdon al muñeco cabron, los sicarios son.....





Letra subida por: Anónimo

Discos en los que aparece este acorde: Satan Vive

El acorde de Los Sicarios de Narco es una versión de la canción original realizada por colaboradores/usuarios de Coveralia.

¿Has encontrado algún error en esta página? Envíanos tu corrección del acorde