música
Buscador

Acorde de Los Majaras - Santa Ugueda - The Kagas



> = Restregar la cuerda con la púa

/ = separación por partes del RIFF



RIFF 1



1.-----------------------------------/-----------------------------------

2.-----------------------------------/-----------------------------------

3.-----5----9-------------5---9------/----------5-----------------------

4.-----5----9----7----3---5---9---5--/--3---6---5---5---7----6---5----

5.-----3----7----7----3---3---7---5--/--3---6---3---5---7----6---5----

6.---------------5----1-----------3--/--1---4-------3---5----4---3-----



RIFF 2



1.-------------------------------------------------------------------------

2.-------------------------------------------------------------------------

3.---5>-----5---5---5>----5-----5>-----5---5-----------------------

4.---5>--5--5---5---5>-5--5-----5>--5--5---5---3---6--------------

5.---3>--5--3---3---3>-5--3-----3>--5--3---3---3---6--------------

6.-------3-------------3------------3----------1---4--------------



RIFF 3



1.-----------/------------/--------------/---------------------------------

2.-----------/------------/--------------/-----------------------------------

3.------5----/---5--------/--------------/--5--------------------------------

4.--5---5----/---5--2-----/---2---3--5---/--5---2---5------------------------

5.--5---3----/---3--2-----/---2---3--5---/--3---2---5------------------------

6.--3--------/------0-----/---0---1--3---/------0---3-------------------------









ESTRUCTURA



RIFF 1



RIFF 2 Alguien dice que estas averiado,

Necesitas reparación,

Alguien te ha descatalogado,

Alguien te encerró



RIFF 2 Ellos entran en tu cabeza,

Ellos buscan algún error,

Ellos quieren tener tu mente,

Bajo su control



ESTRIBILLO

RIFF 1 Ellos no comprenden lo que pasa en tu interior,

Ellos no soportan no tener la explicación,

Ellos juegan a ser Dios, y tu te comes el marrón



RIFF 1



https://www.coveralia.com/acordes/los-majaras---santa-ugueda-the-kagas.php

RIFF 2 Nunca, nunca estás preparado,

Nunca, nunca, vas a salir,

Nunca es el momento adecuado,

Nunca has de vivir



RIFF 2 Puede que te pongas violento,

Necesitas medicación,

Van a hacer un experimento,

Y tu eres el ratón



RIFF1 CON ESTRIBILLO



RIFF 3 Les pones, nerviosos,

Porque eres diferente,

La gente tiene miedo,

De lo que no comprende



SEGUNDA MITAD DEL RIFF 1



RIFF 1 CON ESTRIBILLO







PARTE FINAL





1.---------------------------/---------------------------------------

2.---------------------------/---------------------------------------

3.---5>-----5---5---5>----5--/---5>-----5---5---8----------------

4.---5>--5--5---5---5>-5--5--/---5>--5--5---5---8---8------------

5.---3>--5--3---3---3>-5--3--/---3>--5--3---3---6---8------------

6.-------3-------------3-----/-------3--------------6-------------



^^^^^^^^^^^^^^^^^^^^^^^^^^

Alguien dice que estas averiado,

Necesitas reparación,

Alguien te ha descatalogado,

Alguien te encerró



1.-------------------------------------------------------------------//

2.------------------------------------------------------------------//

3.---5>-----5---5---5>----5-----5>-----5---5---8------8------5-----//

4.---5>--5--5---5---5>-5--5-----5>--5--5---5---8---8--8--8---5----//

5.---3>--5--3---3---3>-5--3-----3>--5--3---3---6---8--6--8---3---//

6.-------3-------------3------------3--------------6-----6------//



^^^^^^^^^^^^^^^^^^^^^^

Ellos entran en tu cabeza,

Ellos buscan algún error,

Ellos quieren tener tu mente,

Bajo su control





Letra subida por: Anónimo

Discos en los que aparece este acorde: Nuevos Heroes Del Rock

El acorde de Los Majaras - Santa Ugueda de The Kagas es una versión de la canción original realizada por colaboradores/usuarios de Coveralia.

¿Has encontrado algún error en esta página? Envíanos tu corrección del acorde