música
Buscador

Acorde de Los Diez Mandamientos - Tierra Santa

Letra de Los Diez Mandamientos





Intro:





e|----------------------|

B|-12-13-12-10-8-7-8-10-|

G|----------------------|

D|----------------------|

A|----------------------|

E|----------------------| /x4 veces



e|----------------------|

B|-10-11-10-8-6-5-6-8---|

G|----------------------|

D|----------------------|

A|----------------------|

E|----------------------| /x2 veses



e|----------------------|

B|-12-13-12-10-8-7-8-10-|

G|----------------------|

D|----------------------|

A|----------------------|

E|----------------------| /x2 veces



e|----------------------|

B|-8-9-8-6-4-3-4-6------|

G|----------------------|

D|----------------------|

A|----------------------|

E|----------------------|



e|----------------------|

B|-10-11-10-8-6-5-6-8---|

G|----------------------|

D|----------------------|

A|----------------------|

E|----------------------|



e|----------------------|

B|-12-13-12-10-8-7-8-10-|

G|----------------------|

D|----------------------|

A|----------------------|

E|----------------------|



e|----------------------|

B|-12-13-12-10-8-7-8-5--|

G|----------------------|

D|----------------------|

A|----------------------|

E|----------------------|











Solo: Lam /x4

Lam Sol Fa Sol Fa-Sol /x2







Pàrrafo:





A)



Lam Sol

un dia dios a su pueblo salvò

Fa Sol Fa-Sol

de ser esclavo del reino de egipto

Lam Sol

guiados por un hombre y su bastòn

Fa Sol Fa-Sol

pusieron rumbo a una tierra mejor





B)



Do Rem

en un lugar elegido por dios

Do Fa Sol

llego moises y su pueblo espero

Do Rem

y mientras el con su fuego grabo

Mi

las tablas de la ley







C)



Lam Sol

los diez mandamientos

Do Fa Sol

la ley de su dios

Lam Sol

grabada en la piedra

Fa

con el fuego eterno

Sol Fa-Sol

que en el cielo ardio





https://www.coveralia.com/acordes/los-diez-mandamientos-tierra-santa.php

Lam Sol

los diez mandamientos

Do Fa Sol

la ley de su dios

Lam Sol

grabada en la piedra

Fa

con el fuego eterno

Mi

que en el cielo ardio

wo oh oh







Inter: Lam Lam Sol Fa Sol Fa-Sol /x2





Solo: Lam Sol Fa Sol Fa-Sol /x2 veces

Do Rem Do Fa Sol

Do Rem Mi







C)



Lam Sol

los diez mandamientos

Do Fa Sol

la ley de su dios

Lam Sol

grabada en la piedra

Fa

con el fuego eterno

Sol Fa-Sol

que en el cielo hardiò





Lam Sol

los diez mandamientos

Do Fa Sol

la ley de su dios

Lam Sol

grabada en la piedra

Fa

con el fuego eterno

Mi

que en el cielo hardiò

wo oh oh





A)



Lam Sol

cuando moises de la montaña bajo

Fa Sol Fa-Sol

para ensenarle la ley a su pueblo

Lam Sol

adorando a otro dios lo encontrò

Fa Sol Fa-Sol

y su ira sobre ellos callò



B)



Do Rem

y en ese intante el bastòn levanto

Do Fa Sol

y a su pueblo en dos dividio

Do Rem

y por el mundo su pueblo enseño

Mi

lastablas de la ley





C)



Lam Sol

los diez mandamientos

Do Fa Sol

la ley de su dios

Lam Sol

grabada en la piedra

Fa

con el fuego eterno

Sol Fa-Sol

que en el cielo hardio





Lam Sol

los diez mandamientos

Do Fa Sol

la ley de su dios

Lam Sol

grabada en la piedra

Fa

con el fuego eterno

Mi

que en el cielo ardiò

wo oh oh





Lam /x 4



Lam Do Rem Sol Fa-Sol...



Letra subida por: Anónimo

Discos en los que aparece este acorde: Legendario

El acorde de Los Diez Mandamientos de Tierra Santa es una versión de la canción original realizada por colaboradores/usuarios de Coveralia.

¿Has encontrado algún error en esta página? Envíanos tu corrección del acorde