música
Buscador

Acorde de Los Angeles - Benjamin Biolay

Letra de Los Angeles

  Am  C   F
--5---3---1-------------------
--5---5---1-------------------
--5---5---2-------------------
--7---5---3-------------------
--7---3---3-------------------
--5---3---1-------------------
Intro:(Am C F F)x2
 
1er Couplet:
Am   C  F   F
Douter de rien, meme du reve am?ricain, ca me d?tend
Am   C  F   F
L'air est si chaud dans les stations Texaco, humer l'air du temps
  C   F
Regarder les feus de la ville
  C   F
A tout prix se rendre inutile
 
Refrain:
Am   C  F   F
Los Angeles,la terre tremble...
Am   C  F   F
Los Angeles,ville des anges...
 
 
 
Mini-Riff : (peut-?tre tabl? un peu trop aigu, je l'admets :)
---------------------------
---------------------------
-12-9--12-9--7-9-10--------
-----------------------7-7-
---------------------------
---------------------------
 
2eme Couplet(meme riff que le premier):
Etre un cyborg, avancer les yeux pleins de morgue dans la vitrine
Prendre un valium, de la coke et trois lithium, c'est la routine
Regarder les infos du soir
Demain sera deja trop tard
 
Refrain:
Los Angeles,
la terre tremble...
Los Angeles,
ville des anges...
 


Letra subida por: Anónimo

Discos en los que aparece este acorde: Rose Kennedy

El acorde de Los Angeles de Benjamin Biolay es una versión de la canción original realizada por colaboradores/usuarios de Coveralia.

¿Has encontrado algún error en esta página? Envíanos tu corrección del acorde