música
Buscador

Acorde de Lo Que Queda Por Vivir - Bunbury

Letra de Lo Que Queda Por Vivir

Cm G Fm D

-------------------



[CORO]

Cm

Lo que queda por vivir

Fm

no volvere a pedir permiso,

Cm

solo tengo un compromiso

G Cm

que te aviso desde aqui.





G

Creiste que de esta no saldria

Cm

que tendria que retroceder

D

al fin perder mi chuleria,

G7

ese dia no lo vas a ver.



G

No es que yo no sepa perder,

Cm

es que no se ceder facilmente.

D

Lo que piensa la gente para que

G

lo he de tener yo presente.



[CORO]



[SOLO]



e|----------------------------|-1/4-4-4-3-1-1-3p1---1-----------------|

B|--------------1-4/6-6-6-6/1-|------------------4---4-3h4p3-1h31p-0--|

G|-----------1----------------|--------------------------------------0|

D|-------1--3-----------------|---------------------------------------|

A|----3-----------------------|---------------------------------------|

E|1-4-------------------------|---------------------------------------|



https://www.coveralia.com/acordes/lo-que-queda-por-vivir-bunbury.php



e|6-5-4-3-1-------------------------------------|--0-0--2-2-2-2-2-2-2/3

B|-----------4-3-1-0----------------------------|--2-2--3-3-3-3-3-3-3/5

G|------------------0-0-0-0h1-0---0-0-3-1-3-1-0-|----------------------

D|------------------------------3---------------|----------------------

A|----------------------------------------------|----------------------

E|----------------------------------------------|----------------------



e|-3/5-5-5/8--8---63-3-3-3-3-3-3-3-||

B|-5/7-7-7/10-10--63-3-3-3-3-3-3-0-||

G|----------------------------------||

D|----------------------------------||

A|----------------------------------||

E|----------------------------------||







(No musica aqui, pero si deseas son los

mismos acordes)

Ahora mismo lo unico urgente es

ir de frente con mi poca verdad.

Los demas tienen ya suficiente

con su suerte y su libertad.



(Lo mismo)

Si tuviera dos o tres mas vidas

haria lo mismo una y mil veces

que con creces me dieron mucho mas

mucho mas de lo que uno merece.



[CORO]

[CORO]



El acorde final es el siguiente que he hecho

Para que suene como en la rola debes tocar

todas las cuerdas.

e|-5-|

B|-4-|

G|-5-|

D|-3-|

A|-3-|

E|-3-|

Discos en los que aparece este acorde: El Viaje A Ninguna Parte , Freak Show

El acorde de Lo Que Queda Por Vivir de Bunbury es una versión de la canción original realizada por colaboradores/usuarios de Coveralia.

¿Has encontrado algún error en esta página? Envíanos tu corrección del acorde