música
Buscador

Acorde de Lo Mejor Ya Va A Venir - Reik

Letra de Lo Mejor Ya Va A Venir

Estrofas



*Tocar Con Arpegio*



1|-----------------------------------------

2|-----------------------------------------

3|--2-2-2-2-2-2---2-2----2-2-2-2---2-2-2-2-

4|-0-0-0-0-0-0-----------------------------

5|--------------------------------0-0-0-0--

6|---------------2-2----3-3-3-3------------



Estrofas

Si de repente la tristeza

Ya no te deja sonreír

Cierra los ojos sólo piensa

Que lo mejor ya está por venir



Cuando de pronto ya no puedes más

Cuando la fe se fue de aquí

(Mmm, mmm, mmm)

Si algo termina, algo comienza

Dsus2

Y lo mejor ya está por venir



Estribillo

D A

Acuérdate que aquí hay amor

Bm A G

Y que después de la tormenta sale el sol

D F#m

Acuérdate que un corazón

Bm

Se a hace más fuerte

A E

Y no se muere de dolor

G

Vuelvo a decir

G- D/F# -Asus4 - A - D

Que lo mejor ya va a venir



*Tocar con arpegio*



1|-----------------------------------------

2|-----------------------------------------

3|--2-2-2-2-2-2---2-2----2-2-2-2---2-2-2-2-

4|-0-0-0-0-0-0-----------------------------

5|--------------------------------0-0-0-0--

6|---------------2-2----3-3-3-3------------





Cuando esté el mundo de cabeza

No se endereza porque sí

Dale la vuelta a la tristeza

Y a lo mejor vas a sonreír



Estribillo

D A

Acuérdate que aquí hay amor

Bm A G

Y que después de la tormenta sale el sol

https://www.coveralia.com/acordes/lo-mejor-ya-va-a-venir-reik.php

D F#m

Acuérdate que un corazón

Bm

Se a hace más fuerte

A E

Y no se muere de dolor

G

Vuelvo a decir

G- D/F# -Asus4 - A - D

Que lo mejor ya va a venir







Puente:

Bm

No habrá tormentas sin calma

Y no habrá noches sin día

G

Porque fuego en tu alma

Y porque fuego en la mía

D

Porque existen canciones

Por cantar todavía

A

Que no mueran los sueños

Y que viva la vida



Bm

Cuando falte la fuerza

Sobrarán las razones

G

Se unirán los corazones

Harán ruido y

D

Quedará el amor

A

Quedará el amor





Estribillo



D A

Y acuérdate de lo mejor

Bm

Cierra los ojos

A G

Que ya pasará el temblor



D F#m

Y acuérdate que si hay amor

Bm

Los héroes no usan capa

A E

Usan su corazón

G

Confía en mí

G- D/F# -Asus4 - A - D

Lo mejor ya va a venir

Discos en los que aparece este acorde: Lo Mejor Ya Va A Venir (Cd Single)

El acorde de Lo Mejor Ya Va A Venir de Reik es una versión de la canción original realizada por colaboradores/usuarios de Coveralia.

¿Has encontrado algún error en esta página? Envíanos tu corrección del acorde