música
Buscador

Acorde de Llegando A La Felicidad - Pier

Letra de Llegando A La Felicidad

Intro:



C5 C5 G5

e|-----------|-----------|----------------------------------------|

B|-----------|-----------|----------------------------------------|

G|-5-----5-5-|-5-----5-5-|----------------------------------------| todo

D|---5-------|---5-------|-5--/5/5/5/--5--/5/--5--/5/5/5/--5--/5/-| x4

A|-----3-----|-----3-----|-5--/5/5/5/--5--/5/--5--/5/5/5/--5--/5/-|

E|-----------|-----------|-3--/3/3/3/--3--/3/--3--/3/3/3/--3--/5/-|



----------------------------------------------------------------------

C5 G

E|-----------|-----------|--------------|

B|-----------|-----------|--------3-----|

G|-5-----5-5-|-5-----5-5-|---4------4---|

D|---5-------|---5-------|------------5-|

A|-----3-----|-----3-----|------5-------|

E|-----------|-----------|-3------------|



VERSO:

C5

Bebiendo de su copa

G C5

Probando su suerte, al azar.



Saliendo de sus trucos

G

Su presa, dejará escapar.



RIFF DE LA INTRO x1



C5

El jugo de sus frutas

G C5

Jugoso manjar, que se ofrecerá.

G

Banquete encantador que provoca



Todo paladar.



RIFF DE LA INTRO x1



F5 C5 D5

e|---------|---------------------|-------------------|--------------|

B|---------|---------------------|-------------------|--------------|

G|---------|---------------------|-5---5-5---5---5-5-|-7-7--7-7-7-7-|

D|---------|-3---3-3---3-3---3-3-|-5---5-5---5---5-5-|-7-7--7-7-7-7-|

A|-3h5p3h5-|-3---3-3---3-3---3-3-|-3---3-3---3---3-3-|-5-5--5-5-5-5-|

E|---------|-1---1-1---1-1---1-3-|-------------------|--------------|



F5 C5

Gozando de su piel morena

F5 C5 D5

Llegando a la felicidad



F

E|-------------------------------------------------------|

B|-------------------------------------------------------|

G|-------------------------------------------------------|

D|-10-10-12-10---10-10-12-10---10-10-12-10---10-10-12-10-|

A|-8--8--8--8----8--8--8--8----8--8--8--8----8--8--8--8--|

E|-------------------------------------------------------|



C

e|-----------------------------|

B|-----------------------------|

G|-----------------------------|

D|-5-5-7-5---5-5-7-5---7-8-7-5-|

A|-3-3-3-3---3-3-3-3---3-3-3-3-|

E|-----------------------------|



C D5

E|---------|-----------|

B|---------|-----------|

G|---------|--(5)--5-5-|

D|-5-5-7-5-|--(5)--5-5-|

A|-3-3-3-3-|--(3)--3-3-|

E|---------|-----------|



ESTRIBILLO:

F C

Estoy bailando, estoy bailando, es un carnaval

F C D5

Estoy bailando, estoy bailando, es un carnaval

F C

https://www.coveralia.com/acordes/llegando-a-la-felicidad-pier.php

Estoy bailando, estoy bailando, es un carnaval

F C D5

Estoy bailando, estoy bailando, es un carnaval





Solo



e|------------------------------------------|

B|------------------------------------------|

G|----------3--5---5--5-3----------3-5-5----|

D|-6---6--6------5--------6---6--6--------5-|

A|---6----------------------6---------------|

E|------------------------------------------|



RIFF DE LA INTRO x2



Verso:

C5

Bebiendo de su copa

G C5

Probando su suerte, al azar.



Saliendo de sus trucos

G

Su presa, dejará escapar.



RIFF DE LA INTRO x1



C5

El jugo de sus frutas

G C5

Jugoso manjar, que se ofrecerá.

G

Banquete encantador que provoca



Todo paladar.



RIFF DE LA INTRO x1



F5 C5

e|---------|---------------------|-------------------|

B|---------|---------------------|-------------------|

G|---------|---------------------|-5---5-5---5---5-5-|

D|---------|-3---3-3---3-3---3-3-|-5---5-5---5---5-5-|

A|-3h5p3h5-|-3---3-3---3-3---3-3-|-3---3-3---3---3-3-|

E|---------|-1---1-1---1-1---1-3-|-------------------|



F5 C5

Gozando de su piel morena

F5 C5 D5

Llegando a la felicidad



ESTRIBILLO:

F C

Estoy bailando, estoy bailando, es un carnaval

F C D

Estoy bailando, estoy bailando, es un carnaval

F C

Estoy bailando, estoy bailando, es un carnaval

F C D

Estoy bailando, estoy bailando, es un carnaval





Solo:



e|------------------------------------------|

B|------------------------------------------|

G|----------3--5---5--5-3----------3-5-5----|

D|-6---6--6------5--------6---6--6--------5-|

A|---6----------------------6---------------|

E|------------------------------------------|





Final: (mientras se toca el saxo)



C5 C5

e|-----------| |-----|

B|-----------| |-----|

G|-5-----5-5-|x15 |--5--|

D|---5-------| |--5--|

A|-----3-----| |--3--|

E|-----------| |-----|



Letra subida por: Anónimo

Discos en los que aparece este acorde: Rock En Monsterland , Desde Las Sombras: Vivo En El Templo Del Rock

El acorde de Llegando A La Felicidad de Pier es una versión de la canción original realizada por colaboradores/usuarios de Coveralia.

¿Has encontrado algún error en esta página? Envíanos tu corrección del acorde