música
Buscador

Acorde de Lie To Me - Depeche Mode

Letra de Lie To Me

 Intro riff (0:00) 



e---------------------------|

b---------------------------|

g---------------------------|

d---------------------------|

a---2-2-2-2-2-2-4-2-5-5-5---|

e---------------------------|







Solo Riff (0:17)



e------------------------------------------|

b------------------------------------------|

g---11------------------------------9------|

d------9-11-12-11-9-9---11-12-11-12---12---|

a------------------------------------------|

e------------------------------------------|







Chorus (0:34)



e---------------|----------------|

b---------------|----------------|

g---------------|---0-0----------|

d---4-4-2-2-0---|--------4-4-2---|

a---------------|----------------|

e---------------|----------------|



Bm

Come on and lay with me

G F#

Come on and lie to me

Bm

Tell me you love me

G F#

Say I'm the only one

Bm

Come on and lay with me

G F#

Come on and lie to me

Bm

Tell me you love me

G F#

Say I'm the only one







Bridge riff (0:51)



e-----------------------------|

b-----------------------------|

g-----------------------------|

d-----------------------------|

a---2-2-2-4-4-5-5-4-4-2-0-2---|

e-----------------------------|







Verse (1:00)



e---------------------------|

b---------------------------|

g---------------------------|

d---------------------------|

a---2-2-2-2-2-2-4-2-5-5-5---|

e---------------------------|



Bm G F# Bm G F#

Experiences have a lasting impression

Bm

But words once spoken

G F# Bm G F#

Don't mean a lot now

Bm

Belief is the way

G F# Bm G F#

The way of the innocent

Bm

And when I say innocent

G F# Bm G F#

I should say naive







PreChorus (1:34)



E5

So lie to me

F#5 E5 F#5

But do it with sincerity

E5

Make me listen

F#5

Just for a minute

E5

Make me think

F#5

There's some truth in it







Chorus (1:50)



e---------------|----------------|

b---------------|----------------|

g---------------|---0-0----------|

d---4-4-2-2-0---|--------4-4-2---|

a---------------|----------------|

e---------------|----------------|



Bm

Come on and lay with me

G F#

Come on and lie to me

Bm

Tell me you love me

G F#

Say I'm the only one

Bm

Come on and lay with me

G F#

Come on and lie to me

Bm

Tell me you love me

G F#

Say I'm the only one







Bridge riff (2:09)



e-----------------------------|

b-----------------------------|

g-----------------------------|

d-----------------------------|

a---2-2-2-4-4-5-5-4-4-2-0-2---|

e-----------------------------|







https://www.coveralia.com/acordes/lie-to-me-depeche-mode.php

Solo (2:17)



e------------------------------------------|

b------------------------------------------|

g---11------------------------------9------|

d------9-11-12-11-9-9---11-12-11-12---12---|

a------------------------------------------|

e------------------------------------------|







Verse (2:35)



e---------------------------|

b---------------------------|

g---------------------------|

d---------------------------|

a---2-2-2-2-2-2-4-2-5-5-5---|

e---------------------------|



Bm G F# Bm G F#

Promises made for convenience

Bm G

Aren't necessarily

F# Bm G F#

What we need

Bm G

Truth is a word

F# Bm G F#

That's lost its meaning

Bm

The truth has become

G F# Bm G F#

Merely half-truth







PreChorus (3:08)



E5

So lie to me

F#5 E5 F#5

Like they do it in the factory

E5

Make me think

F#5

That at the end of the day

E5

Some great reward

F#5

Will be coming my way









Chorus (3:25)



e---------------|----------------|

b---------------|----------------|

g---------------|---0-0----------|

d---4-4-2-2-0---|--------4-4-2---|

a---------------|----------------|

e---------------|----------------|



Bm

Come on and lay with me

G F#

Come on and lie to me

Bm

Tell me you love me

G F#

Say I'm the only one

Bm

Come on and lay with me

G F#

Come on and lie to me

Bm

Tell me you love me

G F#

Say I'm the only one







Last Chorus (3:42)



e---------------|----------------|

b---------------|----------------|

g---------------|---0-0----------|

d---4-4-2-2-0---|--------4-4-2---|

a---------------|----------------|

e---------------|----------------|



Bm

Come on and lay with me

G F#

Come on and lie to me

Bm

Tell me you love me

G F#

Say I'm the only one

G F#

Come on and lie to me

Bm

Tell me you love me

G F#

Say I'm the only one







Bridge riff (4:00)



e-----------------------------|

b-----------------------------|

g-----------------------------|

d-----------------------------|

a---2-2-2-4-4-5-5-4-4-2-0-2---|

e-----------------------------|







Intro riff (4:09)



e---------------------------|

b---------------------------|

g---------------------------|

d---------------------------|

a---2-2-2-2-2-2-4-2-5-5-5---|

e---------------------------|



Background chords: E5 D5 F#5 E5







Solo (From 4:27 to fade out)



e--------------------------------------------|

b--------------------------------------------|

g----11------------------------------9-------|

d-------9-11-12-11-9---9-11-12-11-12---12----|

a--------------------------------------------|

e--------------------------------------------|

Letra subida por: Anónimo

Discos en los que aparece este acorde: Some Great Reward

El acorde de Lie To Me de Depeche Mode es una versión de la canción original realizada por colaboradores/usuarios de Coveralia.

¿Has encontrado algún error en esta página? Envíanos tu corrección del acorde