música
Buscador

Acorde de Leyenda De Los Dos Amantes - Silvio Rodriguez

Letra de Leyenda De Los Dos Amantes

  



e|-0--------0--------------0----------0----------------------------|

B|--2---------2--------------2----------2--------------------------|

G|----2---------2------------------4-------2-----------------------|

D|------2---------1------------------------------------------------|

A|-------------------------------0---------0-----------------------|

E|--------------------7-4---------------------2--0-----------------|



E B7

e|-0---------0--------------0--------------------------------------|

B|--2----------2--------------2-----------------2------------------|

G|----2----------2------------------4-------------1----------------|

D|------2----------1----------------------------------2-----2------|

A|-------------------------------0----------------------0-----0----|

E|--------7 5--------5-4--------------4-2-------------2-----2------|







E C#m

Como tiernas babosas de la campiña

A F#m

ella y él se enroscaron húmedamente,

B7

húmedamente

E C#m

y él dejó de ser hombre, como ella niña,

A F#m

para ser uno sólo completamente.

B7

Completamente



C#m G#m

https://www.coveralia.com/acordes/leyenda-de-los-dos-amantes-silvio-rodriguez.php

Desde todos los puntos que los juntaban

D C#7 F#m G#m A

se saborearon tanto y con tal delicia,

Am E/G# D/F# C#7

que las horas de vida que les quedaban

F#m B7 E B7

decidieron pasarlas en la caricia.



C#m G#m

A menos de un suspiro del tibio abrazo

D C#7 F#m G#m A

el resto de la historia se debatía

Am E/G# D/F# C#7

en átomos, galaxias y otros acasos

F#m B7 E B7

que encontraron certeza justo aquel día.



E C#m

Y se hicieron leyenda los dos amantes

A F#m

enroscados eterna y húmedamente.

B7

húmedamente

E C#m

Nada pudo tocarlos detrás de guantes.

A F#m

Sólo pueden saberlo los igualmente.

B7

Los iguamente

E

Los iguamente

Letra subida por: Anónimo

Discos en los que aparece este acorde: Cita Con Angeles

El acorde de Leyenda De Los Dos Amantes de Silvio Rodriguez es una versión de la canción original realizada por colaboradores/usuarios de Coveralia.

¿Has encontrado algún error en esta página? Envíanos tu corrección del acorde