música
Buscador

Acorde de Lejos de veras - Lagarto Amarillo

Letra de Lejos de veras



--------------10-10-10-10-9--7----------------7---------12-

-5h7----------10-10-10-10-10-9-7h9-7h9-7-10-9---9-10-------

-----6-6------11-------------------------------------11----

---------7s11----------------------------------------------

-----------------------------------------------------------

-----------------------------------------------------------



-10-10-9--7------------------------------------------------

----10-10-9-7h9-7h9-7h9-7h9--------------------------------

-----------------------------------------------------------

-----------------------------------------------------------

-----------------------------------------------------------

-----------------------------------------------------------



F#m

Hoy me siento tan lejos

F#m A E

De esta casa que llamas la ciudad

F#m

Me hacen sentirme lejos

F#m A E

Dando vueltas los coches sin parar, lejos de veras





--------------10-10-10-10-9--7----------------7------------

--------------10-10-10-10-10-9-7h9-7h9-9-9-10---9-10-------

-6-9p6-6------11-------------------------------------------

---------7s11----------------------------------------------

-----------------------------------------------------------

-----------------------------------------------------------



F#m

Hoy yo he venido al cielo

F#m A E

Y en las gotas nos veo navegar

F#m

Van directas al suelo

F#m A E

Paso el rato intentándola estrenar, lejos de veras



--------------10-10-10-10-9--7-------------------------12--

--------------10-10-10-10-10-9-7h9-7h9-9-10-12-9-10--------

-6-9p6-6------11------------------------------------11-----

---------7s11----------------------------------------------

-----------------------------------------------------------

-----------------------------------------------------------

Lejos de veras

-10-10-9--7------------------------------------------------

----10-10-9-7h9-7h9-7h9-7h9--------------------------------

-----------------------------------------------------------

-----------------------------------------------------------

-----------------------------------------------------------

-----------------------------------------------------------



A E

Y cómo puedo estar lejos de casa |

Bm F#m |

Si mi casa está en todos los mares |

A E |x2

La sabana, el desierto, la pampa |

Bm F#m |

Las montañas, la nieve y los valles |





--------------10-10-10-10-9--7-------------------------12--

--------------10-10-10-10-10-9-7h9-7h9-9-10-12-9-10--------

-6-9p6-6------11------------------------------------11-----

---------7s11----------------------------------------------

-----------------------------------------------------------

-----------------------------------------------------------

Cerca de veras

-10-10-9--7------------------------------------------------

----10-10-9-7h9-7h9-7h9-7h9--------------------------------

-----------------------------------------------------------

-----------------------------------------------------------

-----------------------------------------------------------

-----------------------------------------------------------



F#m E

Mala sombra la mañana, lejos de veras

F#m E

Un dibujo para ti, cerca de veras

F#m E

Cien mil niños sin escuela, lejos de veras

F#m E

Vives sin vivir en mí, lejos de veras

F#m E

Bombas para no dormir, lejos de veras

F#m E

Pozo en medio de la arena, cerca de veras

F#m E

Una bala de fusil, lejos de veras

https://www.coveralia.com/acordes/lejos-de-veras-lagarto-amarillo.php




A E

Y cómo puedo estar lejos de casa |

Bm F#m |

Si mi casa está en todos los mares |

A E |x2

La sabana, el desierto, la pampa |

Bm F#m |

Las montañas, la nieve y los valles |



A E

Resulta increíblemente gigante

A E

La guerra provocada por razones elegantes, sí

A E

Ladrones sin guantes controlan negocios

A E

Seguros, sí, y tira pa’lante

A E

Y casi te resulta increíblemente gigante

A E

Las guerras provocadas por las minas de diamantes, mil

A E

Ladrones sin guantes caminan

A E

Directos al trullo, sí, y tira pa’lante, recarga, apunta y dispara





F#m E

Música en torno a la hoguera, cerca de veras

F#m E

Tantas puertas sin abrir, lejos de veras

F#m E

Haz el ritmo a tu manera, cerca de veras

F#m E

Vivo sin vivir en ti

F#m E

Cuando los tambores suenan, cerca de veras

F#m E

Lluvia ácida en abril, lejos de veras

F#m E

Duermo viendo las estrellas, cerca de veras

F#m E

Una bala de fusil, lejos de veras



A E

Y cómo puedo estar lejos de casa

Bm F#m

Si mi casa está en todos los mares

A E

La sabana, el desierto, la pampa

Bm F#m



A E

Fernandito haz que suene la gaita

Bm F#m

Manzanares hay samba en la calle



A E

Zapayito que trine tu flauta

Bm F#m

Recordando canciones de baile







-----------------------------------------------------------

-----------------------------------------------------------

-9-7-6----------------------6-6----------------------------

-------9----------------7-9-----9-9------------------------

-----------------------------------------------------------

-----------------------------------------------------------

cerca de veras





A E

Resulta increíblemente gigante

A E

La guerra provocada por razones elegantes, sí

A E

Ladrones sin guantes controlan negocios

A E

Seguros, sí, y tira pa’lante

A E

Y casi te resulta increíblemente gigante

A E

Las guerras provocadas por las minas de diamantes, mil

A E

Ladrones sin guantes caminan

A E

Directos al trullo, sí, y tira pa’lante, recarga, apunta y dispara

Letra subida por: Anónimo

Discos en los que aparece este acorde: Que La Suerte Te Acompañe

El acorde de Lejos de veras de Lagarto Amarillo es una versión de la canción original realizada por colaboradores/usuarios de Coveralia.

¿Has encontrado algún error en esta página? Envíanos tu corrección del acorde