música
Buscador

Acorde de Learning How To Die - Jon Foreman

Letra de Learning How To Die



Chords:



G C F Dsus D B5/E B5/C Cadd9 A7'

e|--3--0--3--3-----2---0-----0-----3-----3--|

B|--3--1--1--3-----3---0-----0-----3-----3--|

G|--2--0--2--2-----2---4-----4-----0-----0--|

D|--0--2--3--0-----0---4-----4-----x-----2--|

A|--0--3---------------2-----3-----3-----0--|

E|--3------------------0--------------------|



Intro:



G Cadd9 A7sus Dsus D Dsus

e|-----3-3-3-3--|--3--------|-----3-3-3--|--3-3-2-2-3--|

B|-----3-3-3-3--|--3--------|-----3-3-3--|--3-3-3-3-3--|

G|-----2-2-2-2--|--0--------|-----0-0-0--|--2-2-2-2-2--|

D|-----0-0-0-0--|--x--------|-----2-2-2--|--0-0-0-0-0--|

A|--------------|--3---3-2--|--0--0-0-0--|-------------|

E|--3-----------|-----------|------------|-------------|



(If you're a novice in tabs, and this seems confusing, there's a note at the end)



Verse I:

G C2

I'm gonna miss you

A7sus D-Dsus-D G-> [Repeat Intro]

I'm gonna miss you when you're gone

G C2

She says I love you

A7sus D-Dsus-D G-> [Repeat Intro]

I'm gonna miss hearing your songs





Pre-Chorus:

B5/E B5/C B5/E

I said "Please, don't talk about the end

B5/C B5/E B5/C

Don't talk about how every living thing goes away"

https://www.coveralia.com/acordes/learning-how-to-die-jon-foreman.php

B5/E Dsus

She said "Friend



Chorus:

G A7sus C2

"All along thought I was learning how to take

A7sus G

How to bend, not how to break

G A7sus C2

How to live, not how to cry

D

But really I've been learning how to die,

F C G-> [Repeat Intro]

I've been learning how to die "



Verse II:

G C2 A7sus

Hey everyone

D-Dsus-D G-> [Repeat Intro]

I've got no where to go

G C2 A7sus

The grave is lazy

D-Dsus-D G-> [Repeat Intro]

It takes our bodies slow



[Pre-Chorus and Chorus]

F C

I've been learning how to



Outro:

G-C2-A7sus-D

Die

G-C2-A7sus

Die

D

I've been learning how to die

F C G

I've been learning how to

Letra subida por: Anónimo

Discos en los que aparece este acorde: Winter , Limbs And Branches , Fall, Winter, Spring, Summer

El acorde de Learning How To Die de Jon Foreman es una versión de la canción original realizada por colaboradores/usuarios de Coveralia.

¿Has encontrado algún error en esta página? Envíanos tu corrección del acorde