música
Buscador

Acorde de Leap Of Faith - Michelle Branch

Letra de Leap Of Faith

Intro: 2x 



-------3--3--3--3--3--3---------0--0--0--0--0--0--3--

-----1-1-----1-----1------------1-----1-----1-----3--

---2---2-----2-----2----------1-0-----0-----0-----0--

-3-----3-----0-----3-------0----2-----2-----2-----0--

-------0-----0-----0-----3------3-----3-----3-----2--

-------0-----0-----0------------0-----0-----0-----3-- Am, Fmaj9, Am



C G F Fmaj9

one less call to answer

C G Am

feeling full of despair

F C G

Don't think I can get through it

C G Am

Just one last Prayer



Am F C

and It's a leap of faith

G Am

when you believe there's someone out there

F C

it's a leap of faith

G Am

when you believe that someone cares oh

Fmaj9 C G

and when I call out to you will you be right there right there



-------3--3--3--3--3--3---------0--0--0--0--0--0--3--

-----1-1-----1-----1------------1-----1-----1-----3--

---2---2-----2-----2----------1-0-----0-----0-----0--

-3-----3-----0-----3-------0----2-----2-----2-----0--

-------0-----0-----0-----3------3-----3-----3-----2--

-------0-----0-----0------------0-----0-----0-----3-- Am, Fmaj9, Am



C G F Fmaj9

https://www.coveralia.com/acordes/leap-of-faith-michelle-branch.php
Searching for the answer

C G Am

Nobody seems to care

F C G

Oh how I wish that you were here beside me

C G Am

to wipe away my tears



-Chorus-



C G F Fmaj9

waiting for the answer

C G Am

remembering times we would share

F C G

somehow I feel you here beside me

C G Am

even though you're not there



F C

and I'll be waiting by the window

G

for your smile to come through

F C

and I'll be waiting in the darkness

G F

when I call out to you and I'll remember

C G F

when you told me I could trust in you



-Chorus-



-Intro thing-

C G Am

and it's a leap of faith

Letra subida por: Anónimo

Discos en los que aparece este acorde: Broken Bracelet

El acorde de Leap Of Faith de Michelle Branch es una versión de la canción original realizada por colaboradores/usuarios de Coveralia.

¿Has encontrado algún error en esta página? Envíanos tu corrección del acorde