música
Buscador

Acorde de Le Reste Du Temps - Francis Cabrel

Letra de Le Reste Du Temps

Tonalité :  	E 	|	F 	|	F# 	|	G 	|	G# 	|	A 	|	A# 	|	B 	|	C 	|	C# 	|	D 	|	D# 	|	E





Intro : A A9 A A9





A F#m

Et si on dormait sous les arbres,

E

le reste du temps

A F#m

Deux amants posés sur des hardes,

E

deux débutants.

D Bm

En-dessous des cieux qui se lézardent

juste en faire autant...





E E4 E E7

Tellement de choses ont changées





A F#m

Mieux que tous les palais de marbre,

E

l'or des sultans.

A F#m

Quelques branchages qui nous gardent

E

des mauvais vents.

D Bm

Je ferai tout ce qu'il te tarde,

l'homme ou l'enfant.





E E4 E E7

Tellement de choses ont changées





D

Dans nos jardins dérangés

F#m A A9 A A9

tellement de fleurs allongées, tellement...

D

Sous la lumière orangée,

F#m E E4 E7

longtemps nos corps mélangés, longtemps





A F#m

Rien qui mérite qu'on en parle,

E

rien d'inquiétant.

https://www.coveralia.com/acordes/le-reste-du-temps-francis-cabrel.php

A F#m

Un miroir pour que tu te fardes,

E

je t'aime pourtant.

D Bm

Plus personne ne nous regardes

E E4 E E7

ni ne nous entend...





Solo :

A F#m E A F#m E D

-5---5-5-4-2-------------5--5-5-4-2-------------------

-------------2-3-2-5-0--------------2-3-2-5-0-3-3-5-3-

-----------------------2----------------------2-2-3-2-

------------------------------------------------------

------------------------------------------------------

------------------------------------------------------



Bm E

------------------------------------------0-

-3-2----3-2---------5-------7-5---5-7~~~9---

-----4------4-------------------6-----------

--------------4~~~6---4~~~6-----------------

--------------------------------------------

--------------------------------------------





D

Dans nos jardins dérangés

F#m A A9 A A9

tellement de fleurs allongées, tellement...

D

Sous la lumière orangée,

F#m E E4 E E7

longtemps nos corps mélangés, longtemps





A F#m

Pendant que le monde bavarde

E

à rien d'important,

A F#m

on pourrait dormir sous les arbres

E

le reste du temps...

A F#m,

Ou ou ou

E A F#m E A9

le reste du temps...





Discos en los que aparece este acorde: Hors-Saison , Double Tour , L'essentiel 1977-2007

El acorde de Le Reste Du Temps de Francis Cabrel es una versión de la canción original realizada por colaboradores/usuarios de Coveralia.

¿Has encontrado algún error en esta página? Envíanos tu corrección del acorde