música
Buscador

Acorde de Lately (Feat. Tanner Alexander) - Noah Cyrus

Letra de Lately (Feat. Tanner Alexander)

[Intro]

G/B Cadd9 G5

e|---------------------------------|---------------------------------|

B|-------3-----------------------3-|---------------3---------------3-|

G|-----------0---0-----------0-----|-----------0---------------0-----|

D|----(0)------0---------0h2-------|-------0---------------0---------|

A|-2---------------2h3-3-------3---|---------------------------------|

E|---------------------------------|-3---3---3---3---3---3---3---3---|



1 + 2 + 3 + 4 + 1 + 2 + 3 + 4 +



G/B Cadd9 G5

e|---------------------------------|---------------------------------|

B|---------------3---------------3-|---------------3---------------3-|

G|-----------0---------------0-----|-----------0---------------0-----|

D|-------0---------------0h2-------|-------0---------------0---------|

A|-2---2---2---2---2h3-3-------3---|---------------------------------|

E|---------------------------------|-3---3---3---3---3---3---3---3---|



1 + 2 + 3 + 4 + 1 + 2 + 3 + 4 +



G/B Cadd9 G5

e|---------------------------------|---------------------------------|

B|---------------3---------------3-|---------------3---------------3-|

G|-----------0---------------0-----|-----------0---------------0-----|

D|-------0---------------0h2-------|-------0---------------0---------|

A|-2---2---2---2---2h3-3-------3---|---------------------------------|

E|---------------------------------|-3---3---3---3---3---3---3---3---|



1 + 2 + 3 + 4 + 1 + 2 + 3 + 4 +



G/B Csus2 G5

e|---------------------------------|---------------------------------|

B|---------------3---------------3-|---------------3---------------3-|

G|-----------0---------------0-----|-----------0---------------0-----|

D|-------0---------------0---------|-------0---------------0---------|

A|-2---2---2---2---3---3---3---3---|---------------------------------|

E|---------------------------------|-3---3---3---3---3---3---3---3---|



1 + 2 + 3 + 4 + 1 + 2 + 3 + 4 +





[Verse 1]

G/B Cadd9 G5

Well I can't seem to find my peace of mind

G/B Cadd9 G5

Lately I still tell myself you're mine

G/B Cadd9

And I couldn't ask for more

Em7 D5 G5

The first time, not the last time I saw you

G/B Cadd9 G5

I would hold you closer but I know

G/B Cadd9 G5

The more I pull, the more you let go

G/B Cadd9

And I can't say you'd be the same

Em7 D5 G5 Dsus4/F#

The first time, not the last time I saw you





[Chorus]

Em7 D

So I'll hold you too close

G Cadd9

I had to fall, now it's your move

Em7 D G5 Dsus4/F#

Oh Lord, I've been on fire lately

Em7 D

And it's the way that you move

G Cadd9

You wear my pride from your head to your shoes

Em7 D G5

Oh Lord, I've been on fire lately

https://www.coveralia.com/acordes/lately--feat--tanner-alexander--noah-cyrus.php





[Verse 2]

G/B Cadd9 G5

I can't stop looking down at my phone

G/B Cadd9 G5

Keep you on, that's all I've ever known

G/B Cadd9

And I f***ed up, that much is true

Em7 D G5

The last time, not the first time I saw you

G/B Cadd9

Tell me something I don't already know, yeah

G5

I love your way from your fingers to your toes, yeah

G/B Cadd9 G5

I've been trippin', I've been high, I've been low, yeah

G/B Cadd9

The way you're talking really got me confused

Em7 D G5 Dsus4/F#

How close am I to losing you right now?





[Chorus]

Em7 D

So I'll hold you too close

G Cadd9

I had to fall, now it's your move

Em7 D G5 Dsus4/F#

Oh Lord, I've been on fire lately

Em7 D

And it's the way that you move

G Cadd9

You wear my pride from your head to your shoes

Em7 D G5 Dsus4/F#

Oh Lord, I've been on fire lately





[Bridge]

Em7

Oh, tell me that you're never gonna leave me

Dsus4/F#

F*** it up, you make it look easy

G5 Cadd9

I can't lie, you fooled me one too many times

Em7 Dsus4/F#

Well, tell me that you're always gonna be around

G5

My pride is lost but my love is found, oh, oh, oh, oh, oh





[Chorus]

Em7 D

So I won't hold you too close

G5 Cadd9

I had to fall, now it's your move

Em7 D G5

Oh Lord, I've been on fire lately

Em7 D

And it's the way that you move

G5 Cadd9

You wear my pride from your head to your shoes

Em7 D G5

Oh Lord, I've been on fire lately (oh-oh-oh)

Em7 D G5

Oh Lord, I've been on fire lately (oh-oh-oh)

Em7 D G5

Oh Lord, I've been on fire lately (oh-oh-oh)

Em7 D G5

(Oh Lord) Oh Lord, I've been on fire lately (oh-oh-oh)

Em7 D G5

Oh Lord, I've been on fire lately



Discos en los que aparece este acorde: Lately (Featuring Tanner Alexander) (Cd Single)

El acorde de Lately (Feat. Tanner Alexander) de Noah Cyrus es una versión de la canción original realizada por colaboradores/usuarios de Coveralia.

¿Has encontrado algún error en esta página? Envíanos tu corrección del acorde