música
Buscador

Acorde de Las Puertas Del Infierno - Tierra Santa

Letra de Las Puertas Del Infierno

x4   D => por atras

e|------------------||----------------|

B|------------------||----------------|

G|------------------||----------------|

D|--10-9-7-5-4-5-4--||--10-9-7-5-7-7--|

A|------------------||----------------|

E|------------------||----------------|

G =>por atras

e|-----------------------|

B|-----------------------|

G|--7--7--10-9-7-5-7--7--|

D|-----------------------|

A|-----------------------|

E|-----------------------|

D =>por atras

e|------------------||---------------|

B|------------------||---------------|

G|------------------||---------------|

D|--10-9-7-5-4-5-4--||--10-9-7-5-7---|

A|------------------||---------------|

E|------------------||---------------|

G =>por atras

e|-----------------------------------|

B|--7-7-7-7-7-7-7-7-5-5-5-5-5-5-5-5--|

G|-----------------------------------|

D|-----------------------------------|

A|-----------------------------------|

E|-----------------------------------|

D =>por atras

e|-----------------------------------|

B|-----------------------------------|

G|-----------------------------------|

D|--5-5-5-5-5-5-5-5-5-5-5-5-5-5-5-5--|

A|-----------------------------------|

E|-----------------------------------|







D

--Viaje a un lugar lejos de aquí

D C

--busque la senda que perdí



donde se queman los malditos



D

Vi a los jinetes cabalgar

D C

miré a la muerte sin temblar

D

abrí las puertas del infierno



G

Allí encontré mi alma

G

ardiendo entre las llamas

D

que el diablo me robo

D

ahogando mi valor

C G

--borrando al hombre que hubo en mi





D

Fui condenado a perecer

D

y aunque mi alma he de perder

C D -C

https://www.coveralia.com/acordes/las-puertas-del-infierno-tierra-santa.php

no llevaré en mi cruz delito





D

Desterraré esta maldición

D

me burlaré de mi prisión

C D -C

me escaparé de mi destino





G

Podré salvar mi alma

G

sumida entre las llamas

D

que el diablo me robó

D

ahogando mi valor

C G

volveré a la senda que perdí





D C G -C

Quiero que reces por mi

D C G -C

yo he de luchar hasta el fin

D C G -C

debo mi alma salvar

D C G

y de mi encierro escapar

D

más allá del horizonte





Solo:



G

Podré salvar mi alma

G

sumida entre las llamas

D

que el diablo me robó

D

ahogando mi valor

C G

volveré a la senda que perdí





D C G -C

Quiero que reces por mi

D C G -C

yo he de luchar hasta el fin

D C G -C

debo mi alma salvar

D C G

y de mi encierro escapar

D C G -C

Quiero que reces por mi

D C G -C

yo he de luchar hasta el fin

D C G -C

debo mi alma salvar

D C G

y de mi encierro escapar

D

más allá del horizonte

Letra subida por: Anónimo

Discos en los que aparece este acorde: Indomable

El acorde de Las Puertas Del Infierno de Tierra Santa es una versión de la canción original realizada por colaboradores/usuarios de Coveralia.

¿Has encontrado algún error en esta página? Envíanos tu corrección del acorde