música
Buscador

Acorde de Las Prejudicadas - Disidencia

Letra de Las Prejudicadas

Ritmo flamenco.

Intro
-----
         D                 A              G               A

e|-3-3-2-0-------|-2-3-2-3-5-7-5-7-5-|-3-3-2-0-|-----------------------|
B|---------3-3-0-|-------------------|---------|3-3-0-3-2-3-2-5-7-5-7-5|
G|---------------|-------------------|---------|-----------------------| X2
D|---------------|-------------------|---------|-----------------------|
A|---------------|-------------------|---------|-----------------------|
E|---------------|-------------------|---------|-----------------------|
     D
e|-------|
B|-33333-|
G|-------| Aqui hace una especie de "tititititi" pero no
D|-------| se como vainas se expresa eso en una tablatura,
A|-------| si alguien lo sabe que lo corrija o que me
E|-------| mande un emilio.

D(RE)               A(LA)
Me levanto de lao a lao,
G(SOL)             A(LA)
tropiezo con la me-sita
G(SOL)               D(RE)
Del trabajo me han e-chao,
G(SOL)                  A(LA)
esto no hay quien lo re-sista

D(RE)                  A(LA)
Maldito el juego el de hoy,
G(SOL)               A(LA)
explotados y explota-dores
G(SOL)             D(RE)
Por un duro que te doy
G(SOL)                A(LA)
has de matarte a sudo-res


Estribillo
----------
F#m(FA#m)       G(SOL)
Pasame la priva mala
G(SOL)                      F#m(FA#m)
que esta noche es para olvi-dar
F#m(FA#m)            G(SOL)
Y aunque no sirva de nada
G(SOL)               A(LA)
este mundo ha de cam-biar


         D                 A              G               A

e|-3-3-2-0-------|-2-3-2-3-5-7-5-7-5-|-3-3-2-0-|-----------------------|
B|---------3-3-0-|-------------------|---------|3-3-0-3-2-3-2-5-7-5-7-5|
G|---------------|-------------------|---------|-----------------------| X2
D|---------------|-------------------|---------|-----------------------|
A|---------------|-------------------|---------|-----------------------|
E|---------------|-------------------|---------|-----------------------|
     D
e|-------|
B|-33333-|
G|-------| Aqui hace otra vez el "tititititi" ese.
D|-------|
A|-------|
E|-------|

D(RE)             A(LA)
Estamos hart@s de ser
G(SOL)              A(LA)
siempre l@s perjudi-cad@s.
G(SOL)               D(RE)
Ayer fui yo quien la pise
G(SOL)                  A(LA)
hoy le toca a otr@ prin-gad@.
D(RE)             A(LA)
Estais jugando al azar
G(SOL)                A(LA)
con unas reglas podri-das.
G(SOL)               D(RE)
Ya que yo paso de en-trar,
G(SOL)             A(LA)
hare mi propia par-tida.

Estribillo
----------
F#m(FA#m)       G(SOL)
Pasame la priva mala
G(SOL)                      F#m(FA#m)
que esta noche es para olvi-dar
F#m(FA#m)            G(SOL)
Y aunque no sirva de nada
G(SOL)               A(LA)
este mundo ha de cam-biar

D(RE)                       A(LA)
naino naino naino nonanona nonaino naino naaa |
F#m(FA#m)                   A(LA)             |x2
naino naino naino nonanona nonaino naino naaa |

A(LA) D(RE)--> FIN


Letra subida por: Anónimo

Discos en los que aparece este acorde: Apologia De Lo Evidente

El acorde de Las Prejudicadas de Disidencia es una versión de la canción original realizada por colaboradores/usuarios de Coveralia.

¿Has encontrado algún error en esta página? Envíanos tu corrección del acorde