música
Buscador

Acorde de Lady Blue - Bunbury

Letra de Lady Blue

   

Bb Bb7 Cm Dm F D# D#m G# Gm

-1--1---3--5--1--6--6---4--3----

-3--3---4--6--1--8--7---4--3----

-3--1---5--7--2--8--8---5--3----

-3--3---5--7--3--8--8---6--5----

-1--1---3--5--3--6--6---6--5----

--------3-----1---------4--3----





Verso 1



Bb Cm Dm

Hoy voy a empezar hoy es el comienzo del final

F

del cocodrilo, astronauta soy en órbita lunar

Bb Dm D#

Y ahora todo es mejor, la lluvia de asteroides ya pasó

Bb F

no fue para tanto y desde aquí



D# Bb

todo es insignificante

Gm

nada es tan preocupante

F

y el espacio es un lugar tan vacío sin tí





Estribillo:



Bb Dm

Lady, Lady Blue

G#

Sin control, sin dirección

D# F

La luz se fue ¿a donde voy?



Bb Dm

Lady, Lady Blue

G#

Sin control, sin dirección

D# F

La luz se fue ¿a donde voy?





Verso 2



Bb Cm

No volverás a ver la mirada triste

Dm F

del chico que observaba el infinito

Bb Dm

Llamando a la estación: perdemos combustible

D# Bb F

y la tripulación se quiere despedir desde aquí



D# Bb Gm

https://www.coveralia.com/acordes/lady-blue-bunbury.php

Dejo esta grabación a falta de algo mejor

F

la soledad es un lugar tan vacío sin tí





Estribillo:



Bb Dm

Lady, Lady Blue

G#

Sin control, sin dirección

D# F

La luz se fue ¿a donde voy?



Bb Dm

Lady, Lady Blue

G#

Sin control, sin dirección

D# F (F)

La luz se fue ¿a donde voy?





Puente



Bb Bb7

Desde hoy

D# D#m Bb

no temas nada, no hace falta ya

F Gm

todo se fue con el huracán



Bb Bb7

nada queda

D# D#m Bb

de las vueltas que el tiempo nos dio

F Gm

todo se fue con el huracán





Final:



Bb Bb7 D# D#m

e------------------------------------------------------------

B------------------------------------------------------------

G------------------------------------------------------------

D------------------------------------------------------------

A--1--3--5------3--5--5--6--5--3------3--5--6--5--3----------

E--1--------1---------------------6------------------6---3---



Bb F Dm

e------------------------------------------------------------

B------------------------------------------------------------

G------------------------------------------------------------

D------------------------------------------------------------

A--1--3--5------1--3--5h6p5h6p5h6p5h6p5h6p5h6p5h6p5h6--------

E--1--------5------------------------------------------------



El acorde de Lady Blue de Bunbury es una versión de la canción original realizada por colaboradores/usuarios de Coveralia.

¿Has encontrado algún error en esta página? Envíanos tu corrección del acorde