música
Buscador

Acorde de Laburo - Salta La Banca

Letra de Laburo


E/-------------------------------
B/-------------------------------
G/-7-7-7-5-5-5---3-2-------------
D/-7-7-7-5-5-5---3-2-5-----------      RIFF 1
A/-5-5-5-3-3-3---1-0-5-----------
E/-------------------3-----------

E/-------------------------------
B/-------------------------------
G/-7-7-7-5-5-5---3-2--5----------
D/-7-7-7-5-5-5---3-2--5----------      RIFF 2
A/-5-5-5-3-3-3---1-0--3----------
E/-------------------------------


En la mesa especial de un cafetin paqueton        RIFF 1
una dupla perversa negocia la traicion            RIFF 2
tras el saco de cuero de algun gordo maton
se distingue el pulgito de un rapaz 22

Bruta parafernalia en su bonita mansion           RIFF 1
sobra infierno en el cielo del que aspira a buchon   RIFF 2
toda la comitiva se dispone a ensalzar
al pichon del letrado, que no va a trabajar.



Punteo:

E/--------------------------------------------|
B/--------------------------------------------|
G/--------6-----------------------------------|
D/--8-6---6---8---------------6---------------|
A/------8-------------8--6----6--8------------|
E/--------------------------8-----------------|
       x2                  x2

Con los sueños pellizcandose
en un lagrimoso estribo del tren
y el escrupulo filoso que se extiende
hasta anularme la sien
C7             G7
yo me pregunto ¿en que lugar
A#
estaba el buitre manoseando
        C#
el destino de mi posteridad?

SOLO
E/--13--------------------------------------------------------------------|
B/-----15--13--15--13-----13------12-12--12--10--12-10--12-10-12-10------|
G/---------------------14------14-----------------------12-10-12-10----|
D/------------------------------------------------------------|
A/------------------------------------------------------------|
E/------------------------------------------------------------|

E/------------12-13--12-13-15--13--12--13-12--------13---------20-----|
B/----13--15---------------------------------13--15----15---------18--|

punteo

Con los sueños pellizcandose
en un lagrimoso estribo del tren
y el escrupulo filoso que se extiende
hasta anularme la sien
C7             G7
yo me pregunto ¿en que lugar
A#
estaba el buitre manoseando
        C#
el destino de mi posteridad?


D-C
a Mariano Ferreyra le disparo el soplón
del mas rancio burocrata de esta legion
¿y esa bala siniestra le rozo el corazon
al cortijo guardian de ese viejo traidor?


Letra subida por: Anónimo

Discos en los que aparece este acorde: Visceral

El acorde de Laburo de Salta La Banca es una versión de la canción original realizada por colaboradores/usuarios de Coveralia.

¿Has encontrado algún error en esta página? Envíanos tu corrección del acorde