música
Buscador

Acorde de La Virgen De La Soledad - Le Punk

*mejor hacer C7 y B7 con cejilla





G Em

1. No tenía donde poner los pies

Am B7

por temor a dar un paso atrás,

G Em

por pensar en recorrer de nuevo

Am B7

el camino a casa por el arcén.



1. He conocido labios de carbón

y lenguas de terciopelo

que escondían detrás de las palabras bonitas

unos colmillos con veneno...



C Em B7 Em

2. ...la noche que conocí a cupido él estaba borracho

G Am

jugaba a los dados con Carmen

B7

en un bar del extrarradio...



Em C7 B7 Em C7 B7

EST. Y brindaba por la virgen de la soledad

Em C7 B7 Em C7 B7

que deje de ser virgen y de estar tan sola

Em C B7 Em C7 B7

por los días en que levantarse parece una broma

Em G Am B7

por las noches en que no estás tu y casi todo me sobra





e|---------12-11-10-------|-----------------------------10s11-------|

B|--11s12-----------12-11-|-8s10-8-------------12-13-12-------12-12-|

G|------------------------|--------9------9-12----------------------|

D|------------------------|----------9s10---------------------------|

A|------------------------|-----------------------------------------|

https://www.coveralia.com/acordes/la-virgen-de-la-soledad-le-punk.php

E|------------------------|-----------------------------------------|





e|-----------------------------|--11h12-10-----------------||

B|---------------10-12-10------|-----------12-10----11b12--||

G|--10s11-9-9-12----------12-9-|-----------------12--------||

D|-----------------------------|---------------------------||

A|-----------------------------|---------------------------||

E|-----------------------------|---------------------------||







1. No había estrellas en el cielo

como casi siempre que miro,

quizá la luz azul de la ciudad

y pájaros que cantan por que creen que ha amanecido;



1. la vida en una estrofa,

la muerte cuando llegue el día,

el corazón helado sentado en una hoguera y yo

con la conciencia tranquila.



2. La noche que bailé con el amor de mi vida

llovía demasiado para prender la mecha

y yo tenía dinamita en la saliva.



EST. Brindaba por la virgen de la soledad

que deje de ser virgen y de estar tan sola

por los días en que levantarse parece una broma.



EST. Brindaba por la virgen de la soledad

que deje de ser virgen y de estar tan sola

por los días en que levantarse parece una broma.

Por las noche en que no estás tu y casi todo me sobra







Letra subida por: Anónimo

Discos en los que aparece este acorde: No Disparen Al Pianista

El acorde de La Virgen De La Soledad de Le Punk es una versión de la canción original realizada por colaboradores/usuarios de Coveralia.

¿Has encontrado algún error en esta página? Envíanos tu corrección del acorde