música
Buscador

Acorde de La Torre De Babel - Tierra Santa

Letra de La Torre De Babel



Intro:



e|----------------------------------------------------------|

B|----------------------------------------------------------|

G|----------------------------------------------------------|

D|-0--0-0-0-2-0-0-0--0-0-0-2-0-0-0--0-0-0-2-0-0-----------0-|

A|-----------------------------------------------1-1--3-3---|

E|----------------------------------------------------------| /x4 veces







Rem

A) Dicen que en babilonia la leyenda surgiò

Rem Do Rem

cuentan que vajo el cielo una torre se alzò

Do

y que un dios justiciero

La# Do Rem

bajo hasta la tierra y la destruyò



repite el intro 1 vez



Rem

cuando la levantaron le segò la ambiciòn

Do Rem

por llegar a lo alto y retar a su Dios

Do

y el castigo del cileo

La# Do Rem

la lengua que hablaban se la confundiò



repite el intro 2 veces



La La#

C) Y la torre las nuves rozò...

La La#

como simbolo de su ambiciòn...

La La# Do

pero un Dios se vengò y su brazo partiò

Rem

la torre de Babel



Inter:....................................................................



...................................................despues viene algo asi:



e|------------------------------------------------------------------------|

B|------------------------------------------------------------------------|

G|------------------------------------------------------------------------|

D|10-0-0-0--9-0-0-0--7-0-0-0--5--0-0-0-4--0-0-0-5--0-0-0-7--0-0-0-9--0-0-0|

A|------------------------------------------------------------------------|

https://www.coveralia.com/acordes/la-torre-de-babel-tierra-santa.php

E|------------------------------------------------------------------------|

x4 veces

Solo:...Rem-La Rem-La Fa-Do-La#-Rem Fa-Do-Mi



e|------------------------------------------------------------------------|

B|------------------------------------------------------------------------|

G|------------------------------------------------------------------------|

D|10-0-0-0--9-0-0-0--7-0-0-0--5--0-0-0-4--0-0-0-5--0-0-0-7--0-0-0-9--0-0-0|

A|------------------------------------------------------------------------|

E|------------------------------------------------------------------------|

x4 veces



Rem

A) Solo ruinas quedaron muerte y desolaciòn

Rem Do Rem

un gran presio ha pagado por jugar a ser Dios

Do

y en el nombre del padre

La# Do Rem

mirando hacia el cielo le piden perdòn



repite el intro 1 vez



Rem

A) Negras nuves hacechan sobre la humanidad

Do Rem

en el alto un aviso de un destino fatal

Do

y en la tierra la sangre

La# Do Rem

recorre las piedras de la vanidad



repite el intro 2 veces



La La#

C) Y la torre las nuves rozò...

La La#

como simbolo de su ambiciòn...

La La# Do

pero un Dios se vengò y su brazo partiò

Rem

la torre de Babel





Solo:...Rem-La#-Do /x2

Mim-Do-Re /x2

Si



Final: Do-Re-Mim





Letra subida por: Anónimo

Discos en los que aparece este acorde: Tierras De Leyenda

El acorde de La Torre De Babel de Tierra Santa es una versión de la canción original realizada por colaboradores/usuarios de Coveralia.

¿Has encontrado algún error en esta página? Envíanos tu corrección del acorde