música
Buscador

Acorde de La Puerta Verde - Los Nikis

Punteos:

(1) (2)

----12----12----12----12-- ----12----12----12----12--

-12----12----12----12----- -14----14----14----14-----

-------------------------- --------------------------

-------------------------- --------------------------

-------------------------- --------------------------

-------------------------- --------------------------



(3) (4)

----11----11----11----11-- ----9-----9-----9-----9---

-12----12----12----12----- -10----10----10----10-----

-------------------------- --------------------------

-------------------------- --------------------------

-------------------------- --------------------------

-------------------------- --------------------------



Intro: (1) x2



(1) (2) (1) (1)

Otra noche más que no duermo,

(2) (2) (1) (1)

otra noche más que se pierde,

(3) (4) (1) (1)Mi

¿qué habrá tras esa puerta verde?



MI LA

Suena alegremente un piano viejo

MI

tras la puerta verde,

LA

todos ríen y no sé qué pasa

MI

tras la puerta verde,

SI LA

no descansaré hasta saber qué hay

MI

tras la puerta verde.



(1) (2) (1) (1)

Toqué y cuando contestaron

(2) (1) (1)

dije: aquí a mí me llamaron.

(3) (4) (1) (1)Mi

Risas y enseguida me echaron.



MI LA MI

Sólo pude ver que mucha gente allí se divertía

LA MI

y que entre tanto humo todo allí se confundía.

SI LA MI

Yo quisiera estar al otro lado de la puerta verde.

https://www.coveralia.com/acordes/la-puerta-verde-los-nikis.php


MI SOL# LA DO# x2



Solo:

LA

------5-------5------------5-------5----

-2/5----5-------5-----2/5----5-------5--

------------6--------------------6------

----------------------------------------

----------------------------------------

----------------------------------------



MI

----------------------------------------

------5-------5------------5-------5----

-1/4----4-------4-----1/4----4-------4--

------------6--------------------6------

----------------------------------------

----------------------------------------



SI LA

------7-------7------------5-------5----

-4/7----7-------7-----2/5----5-------5--

------------8--------------------6------

----------------------------------------

----------------------------------------

----------------------------------------



MI

----------------------------------------

------5-------5------------5-------5----

-1/4----4-------4-----1/4----4-------4--

------------6--------------------6------

----------------------------------------

----------------------------------------





(1) (2) (1) (1)

Otra noche más que no duermo,

(2) (2) (1) (1)

otra noche más que se pierde,

(3) (4) (1) (1)

¿qué habrá tras esa puerta verde?

(3) (4) (1) (1)

¿qué habrá tras esa puerta verde?

MI

¡qué habrá!







Letra subida por: Anónimo

Discos en los que aparece este acorde: Marines A Pleno Sol

El acorde de La Puerta Verde de Los Nikis es una versión de la canción original realizada por colaboradores/usuarios de Coveralia.

¿Has encontrado algún error en esta página? Envíanos tu corrección del acorde