música
Buscador

Acorde de La Niña Morena - Elefantes

Letra de La Niña Morena

Este es más o menos el punteado de la introducción:



Consejillo: Si colocais la mano de la siguiente manera os irá mejor.



El índice en el 2º, el anular en el 4º y el meñique en el 5º traste

de la 3ª cuerda (b) y el corazón en el 3r traste de la 5ª cuerda (A).



Em

e|------------------------------------------------------------------0---------------

b|-------------------------------------------------------------------0--------------

g|--5-4-2-----2---2-4-5-4-2--5-4-2-5-4-2--4-2-0-----0---0-2-4-2-0-----0-------------

D|----------3---3---------------------------------2---2----------------2------------

A|--3---0-----0---0---3---0--3---0-3---0--2-----------------2-----------2----0-2----

E|--------------------------------------------3-----3---3-------3--------0-3-----3--





F Em F Dm5 Em

La niña morena vestidita en blanco

F Em Dm5 Em

Cruza la bahía. ¡Qué alegre es su canto!

F Em A5

Grita el aire loco, el aire gitano. Eeeeeeeeeeeeee...



F Em F Dm5 Em

Y la luz se escapa por entre mi vida,

F Em Dm5 Em

y al llegar la noche se abren las heridas.

A5

Grita el aire loco... “grita el aire loco”.



A5 G

“La dejé pasar”. “La dejé pasar”.

Dm5 F A5

“La dejé pasar”. El aire loco.

A5 G

“La dejé pasar”. “La dejé pasar”.

https://www.coveralia.com/acordes/la-nina-morena-elefantes.php

Dm5 F Em

“La dejé pasar”.



Em (arpejio rápido) Em

e|-------------------0---------------------------------0------------------

b|-------------------0----------------------------------0-----------------

g|-------------------0-----------------------------------0----------------

D|-------------------2------------------------------------2---------------

A|-2-3-5-5/7--5/3/5--2----0-2-3-3/5--3/2/3--2-3-5-5/7------2--------------

E|-------------------0-0------------------------------------0--0-1-5-3-0--



F Em F Dm5

Y yo estoy tan solo que Cai lo nota.

Em F

Y como quién no quiere

Dm5

me enseña que el amor

Em F

no está en las personas sino en las cosas.

A5

¡Miente el aire loco!



A5

“La deje pasar”... Leeeeeeeeee...







ACORDES:



A5 577555

Dm5 557765

Em 022000

F 133211

G 355433

Letra subida por: Anónimo

Discos en los que aparece este acorde: La Forma De Mover Tus Manos , Gracias , Gracias

El acorde de La Niña Morena de Elefantes es una versión de la canción original realizada por colaboradores/usuarios de Coveralia.

¿Has encontrado algún error en esta página? Envíanos tu corrección del acorde