música
Buscador

Acorde de La Motito De Carlitos - Mala Fama

Letra de La Motito De Carlitos

Intro

D# A#

e/------3--333----1----1----

b/------------------ 4----3-

g/---3----------------------

d/--------------------------

a/--------------------------

e/--------------------------

Cm X2

e/--1-------------------

b/------3/4----444--3--1

g/----------------------

d/----------------------

a/----------------------

e/----------------------



G# G# Fm Fm x2 A#





D# A# Cm G# Fm A#

Le robaron la motito al boludo de carlitos

D# A# Cm G# Fm A#

Ahora anda en bicicleta ,la que le presto un amigouu





D# A#

Porqe tanta maldad hay en esta villa

G# A#

Le rastreaste la moto cuando iba a trabajar

D# A#

Sos un atrevido , te la re mandas

G# A#

Lo estuviste esperando en la municipalidad

D# A#

Ahora la queres vender nada te quieren dar

G# A#

No vale mucho dinero todo es sentimental

D# A#

Y por la mañana se quiere matar

G# A#

Se levanta una hora antes para pedalear

D# A#

Le robaste la moto al pobre de carlitos

G# A#

Que todos lo conocemos.. es buenito

D# A#

Ahora por rastrero te van a encerrar

G# G#

Y ensima esta cancion ...y ensima esta cancion..

A#

Te voy a dedicar..



D# A# Cm G# Fm A#

Le robaron la motito al boludo de carlitos

D# A# Cm G# Fm A#

Ahora anda en bicicleta ,la que le presto un amigouu



D# A#

e/------3--333----1----1----

b/------------------ 4----3-

g/---3----------------------

d/--------------------------

a/--------------------------

e/--------------------------

Cm X2

e/--1-------------------

b/------3/4----444--3--1

g/----------------------

https://www.coveralia.com/acordes/la-motito-de-carlitos-mala-fama.php
d/----------------------

a/----------------------

e/----------------------



G# G# Fm Fm x2 A#



D# A# Cm G# Fm A#

Le robaron la motito al boludo de carlitos

D# A# Cm G# Fm A#

Ahora anda en bicicleta ,la que le presto un amigouu





D# A#

Si te la vas a quedar te voy a aconsejar

G# A#

Arreglale los frenos que te vas a matar

D# A#

Llevate tornillito lo tenes que ajustar

G# A#

en la parte de abajo Donde esta la patada

D# A#

La bocina no anda la bujia tampoco

G# A#

Hacele cambio de aros que te va a durar poco

D# A#

Le robaste la moto al pobre de carlitos

G# A#

Que todos lo conocemos... es buenito

D# A#

Porqe tanta maldad hay en esta ciudad

G# A#

Le rastreaste la moto cuando iba a trabajar

D# A#

Ahora por rastrero te van a encerrar

G# G#

Y ensima esta cancion ...y ensima esta cancion..

A#

Te voy a dedicar..







D# A# Cm G# Fm A#

Le robaron la motito al boludo de carlitos

D# A# Cm G# Fm A#

Ahora anda en bicicleta ,la que le presto un amigouu



D# A#

e/------3--333----1----1----

b/------------------ 4----3-

g/---3----------------------

d/--------------------------

a/--------------------------

e/--------------------------

Cm

e/--1-------------------

b/------3/4----444--3--1

g/----------------------

d/----------------------

a/----------------------

e/----------------------



G# G# Fm Fm x2 A#









Letra subida por: Anónimo

Discos en los que aparece este acorde: Lo Peor

El acorde de La Motito De Carlitos de Mala Fama es una versión de la canción original realizada por colaboradores/usuarios de Coveralia.

¿Has encontrado algún error en esta página? Envíanos tu corrección del acorde