m�sica
Buscador

Acorde de La Máquina De Picar Carne - Almafuerte

Letra de La Máquina De Picar Carne



Intro

|------------------------------------------------------------|

|------------------------------------------------------------|

|------------------------------------------------------------|

|------------------------------------------------------------|

|--------------------------------------------------5---2-----|

|-3-2-0-3-5-3-2-0-3-2-0-3-5-3-2-0-3-2-0-3-5-3-2-0--3---0-----|x4



D5

Hacia las luces rojas

C5

me guió la insensatez

B5

y a la máquina de picar carne

A5

aquí mismo encontré, yo



Intro

|------------------------------------------------------------|

|------------------------------------------------------------|

|------------------------------------------------------------|

|------------------------------------------------------------|

|--------------------------------------------------5---2-----|

|-3-2-0-3-5-3-2-0-3-2-0-3-5-3-2-0-3-2-0-3-5-3-2-0--3---0-----|x2



Su rabioso meneo

no es propiedad del reggaetón

si la acompaña el metalero

con una cuarta y cuatro dedos



D5 A5

D5 G5 A5



B5 A5

Ico ico, caballito

G5 E5

vamos a Belén |-5-4-2-0-|(5ta cuerda)

B5 A5

que mañana es fiesta

G5 E5

y pasado también



B5 C#5 D5

Me dirán que no fue

E5

que no puede suceder

F#5 G5

que a la máquina de picar carne

A5 B5

encontré, yo



INTERLUDIO

|----------------------------------------------------------------|

|----------------------------------------------------------------|

|----------------------------------------------------------------|

|----------------------------------------------------------------|

|-------------------3^-------------------3^-------------------3^-|

|-3-2-0-2-3-5-3-2-3----3-2-0-2-3-5-3-2-3----3-2-0-2-3-5-3-2-3----|



|-----------------------------------------------------|

|-----------------------------------------------------|

|-----------------------------------------------------|

|-------------------------------3-----------4---------|

|-------2-----------3-----2-3-5---5-3-4-5-7---7-5-----|

|-2-3-5---5-3-3-5-7---7-5-----------------------------|



SOLO

|-------------------------------------5h7-5~--------------------|

|----------------------5p7-5~~---8~~----------------------------|

|-------6h7-6~~---7~~------------7----------------7---7h9-6-----|

|--9~~------------7---------------------------------------------|

|--9------------------------------------------------------------|

|---------------------------------------------------------------|



T

|--------------7-8-10----------17-----15-14~~-------------|

|-------7-8-10--------------------------------------------|

|-6-7-9---------------------------------------------------|

|---------------------------------------------------------|

|---------------------------------------------------------|

|---------------------------------------------------------|



|-19full-----------17-19-21-21full--21-19-22full~~~~--------|

|---------17-19-20------------------------------------------|

|-----------------------------------------------------------|

|-----------------------------------------------------------|

|-----------------------------------------------------------|

https://www.coveralia.com/acordes/la-maquina-de-picar-carne-almafuerte.php

|-----------------------------------------------------------|



T T T T

|-19-14-10-17-14-10-19-14-10-17-14-10-----|

|-----------------------------------------|

|-----------------------------------------|

|-----------------------------------------|

|-----------------------------------------|

|-----------------------------------------|



T T T T

|-16-12-9--16-12-9--16-12-9--16-12-9------|

|-----------------------------------------|

|-----------------------------------------|

|-----------------------------------------|

|-----------------------------------------|

|-----------------------------------------|



T T T T

|-17-14-10--17-14-10--17-14-10--17-14-10--|

|-----------------------------------------|

|-----------------------------------------|

|-----------------------------------------|

|-----------------------------------------|

|-----------------------------------------|



T T T T

|-19-16-12--19-16-12--19-16-12--19-16-12--|

|-----------------------------------------|

|-----------------------------------------|

|-----------------------------------------|

|-----------------------------------------|

|-----------------------------------------|



|-19full--------171920-20full-----------1920222019-22full--|

|--------171920----------------19202220--------------------|

|----------------------------------------------------------|

|----------------------------------------------------------|

|----------------------------------------------------------|

|----------------------------------------------------------|



(esta ultima nota se mantiene

|---------------------------------9h10----9-10-12-12full--|

|-------15-13-12-13-15-15full~~--------12-----------------|

|-13-14---------------------------------------------------|

|---------------------------------------------------------|

|---------------------------------------------------------|

|---------------------------------------------------------|



estirada en este tapping)

T T T T

|-1512-1712-1512-12-15-12full~~~~------|

|--------------------------------------|

|--------------------------------------|

|--------------------------------------|

|--------------------------------------|

|--------------------------------------|



D5 A5

D5 G5 A5



Hacia las luces rojas

me guió la incensatez

y a la máquina de picar carne

allí mismo encontré, yo



Su rabioso meneo

no es propiedad del reggaetón

si la acompaña el metalero

con una cuarta y cuatro dedo' en dedo'



D5 A5

D5 G5 A5



Ico ico, caballito

vamos a Belén

que mañana es fiesta

y pasado también



Me dirán que no fué

que no pudo suceder

que a la maquina de picar carne

encontré, yo



D5 A5

D5 G5 A5 B5

Letra subida por: Anónimo

Discos en los que aparece este acorde: Toro Y Pampa , En Vivo Obras 2009 , En Vivo Obras (Dvd) , En Vivo Obras (Dvd)

El acorde de La Máquina De Picar Carne de Almafuerte es una versión de la canción original realizada por colaboradores/usuarios de Coveralia.

¿Has encontrado algún error en esta página? Envíanos tu corrección del acorde