música
Buscador

Acorde de La Máquina De Escribir - Los Planetas

Letra de La Máquina De Escribir





Asus4 = x02200 (Un A normal pero con la segunda cuerda al aire)



E |--------------10-9----------------||

B |------9-10-12------10-9-10-9------||

G |--9-11----------------------------||

D |----------------------------------|| Riff1

A |----------------------------------||

E |----------------------------------||



E |--------------10-9-12-10-9-10-----||

B |------9-10-12---------------------||

G |--9-11----------------------------|| Riff 2

D |----------------------------------||

A |----------------------------------||

E |----------------------------------||



Intro: Asus4 - E





Asus4 - E

dulce y tierna niña



¿que puedes hacer por mi?

Asus4 - E Asus4 - E

¿hasta donde llegarias para hacerme feliz ?



Asus4 - E

me gustaria ver que eres capaz de hacer por verme asi

Asus4 - E Asus4 - E

mi dulce y tierna niña



Asus4 - E

https://www.coveralia.com/acordes/la-maquina-de-escribir-los-planetas.php

por verme sonreir



Asus4 - E Asus4 - E



Asus4 - E

vas a arrodillarte

Asus4 - E

vas a hacerme caso

F#m B E Asus4 - E

podras hacer esto por mi



Riff 1



Riff 2



Riff 1



Riff 2



(Misma estructura para el resto de la cancion)



dulce y tierna niña

¿que puedes hacer por mi?

¿hasta donde llegarias para hacerme feliz?

podria hacerte daño

dejaras que te haga sufrir

mi dulce y tierna niña

dime que si

vas a arrollidarte

vas a hacerme caso

podras hacerlo ahora

podras hacer esto por mi

Letra subida por: Anónimo

Discos en los que aparece este acorde: Pop

El acorde de La Máquina De Escribir de Los Planetas es una versión de la canción original realizada por colaboradores/usuarios de Coveralia.

¿Has encontrado algún error en esta página? Envíanos tu corrección del acorde