música
Buscador

Acorde de La Gran Ciudad - Luzbel

Letra de La Gran Ciudad

Esta es la intro  acústica y se toca con el solo:

E]-0-----------0-------------------------0-------------

B]----------4-----4-----4------------4-----4------4----

G]-------6-----------6------------6------------6-------

D]----7------------------------7-----------------------

A]-0------------------------0--------------------------

E]-----------------------------------------------------



E]-------------0----------------------0----------------

B]----------3-----3---3-----------3-----3-----3--------

G]-------5----------5-----------5-----------5----------

D]---7------------------------5------------------------

A]-0-----------------------0---------------------------

E]-----------------------------------------------------



E]-------------0-------------------------0-------------

B]----------4-----4-----4------------4-----4------4----

G]-------6-----------6------------6------------6-------

D]----7------------------------7-----------------------

A]-0------------------------0--------------------------

E]-----------------------------------------------------

Y el solo acústico va así más o menos:

E]-----------------------------------------------------

B]-5----5h6-5---8-6-5---------------6-5-3--



G]-------------------4-2h4-5-5-5p4--------5-4-2-0-2-

D]----------------------------------------------------

A]-----------------------------------------------------

E]-----------------------------------------------------



E]-12---18--17--15-------------------------

B]-12------------------17--14-12-14------

G]---------------------------------------------

D]---------------------------------------------

Y los acordes A G D y empieza la letra aquí: Como mañana...

E]- -----------0-------------------------0-------------

B]----------4-----4-----4------------4-----4------4----

G]-------6-----------6------------6------------6-------

D]----7------------------------7-----------------------

A]-0------------------------0--------------------------

E]-----------------------------------------------------

Que lentamente ilumina

E]-------------0----------------------0----------------

B]----------3-----3---3-----------3-----3----7---------

G]-------5----------5-----------5----------5-----------

D]---7------------------------7------------------------

A]-0-----------------------0---------------------------

https://www.coveralia.com/acordes/la-gran-ciudad-luzbel.php

E]-----------------------------------------------------

Los confines que la noche oculta





E]-------------0----------------------0----------------

B]----------3-----3---3-----------4-----4----4---------

G]-------5----------5-----------5----------5-----------

D]---6------------------------7------------------------

A]-0-----------------------0---------------------------

E]-----------------------------------------------------

A G D

Te descubrí, te descubrí

Y se repiten las mismas notas de ?Estoy desnudando? hasta

? solo mias?

Mi piel se fusionó



E]-------------------------------------------

B]-1-----3-----5-----10-----8-------------

G]-2-----4-----6-----10-----9-------------

D]-------------------------------------------

A]-3-----5-----7------8------7-------------

E]--------------------------------------------



En tu piel y el amor en tu cuerpo



E]---8----7-----5-----3---------3-------------

B]---8----8-----6-----5-------3---3---3------

G]---7----7-----7-----5-----4-------4---------

D]--------------------------5-------------------

A]-----------------------------------------------

E]-------------------------------------------------



Y se repite y sigue

Solo déjate ser

E]-----------0--------------------0-----------0----

B]--------0----0---0-----------0---0--0------0--0-0-

G]------5--------5-----------5-------5------5----5---

D]----7--------------------6--------------5--------

A]--0--------------------0---------------0----------

E]---------------------------------------------------





A5 G5 E5G5A5

No, no me pidas explicación en el amor no hay condición

G5 A

Solo entrega ternura y calor ...

Discos en los que aparece este acorde: Metal Caido Del Cielo , Guerrero Callejero

El acorde de La Gran Ciudad de Luzbel es una versión de la canción original realizada por colaboradores/usuarios de Coveralia.

¿Has encontrado algún error en esta página? Envíanos tu corrección del acorde