música
Buscador

Acorde de La estación del querer (feat. Antonio Carmona) - Camela

Letra de La estación del querer (feat. Antonio Carmona)







-0-3-2-2-0-0-------3-2-2-0-0---0-2-3--3-3-3-2-0---------------3-5-2--2-3-2-3-2-0-0------2

3------------3-2-3-----------3------------------3-3-2-2-0-------------------------3-2-3--

----------------------------------------------------------2-2----------------------------

-----------------------------------------------------------------------------------------

-----------------------------------------------------------------------------------------

-----------------------------------------------------------------------------------------







-3-2-0-3---3-3-3-2-0-----------------------0---------------2-3---3-3-2-0-------

---------------------3-3-2-2-0-0-------------3-2-3-3-0-2-3---------------3-3-2-

---------------------------------2-2-0-----------------------------------------

---------------------------------------4---------------------------------------

-------------------------------------------------------------------------------

-------------------------------------------------------------------------------





RE SIm

un día gris, una estación de ferrocarril,

SOL LA

por el cristal de un viejo tren yo vi pasar

RE SIm

a una mujer que despertó mi curiosidad

SOL LA

yo la mire, ella me miro y me enamoré



FA# SOL

aun recuerdo esa mirada

LA

que ella a mi me dedicó

FA# SOL

un lago de amor se forma

LA

https://www.coveralia.com/acordes/la-estacion-del-querer--feat--antonio-carmona--camela.php

dentro de mis ojos lloro.



RE SIm SOL

cada tarde que oscurece surgen nuevas ilusiones otra vez,

LA SOL RE

solo espero ver su cuerpo en la llegada de ese tren

SIm SOL

y yo miro entre la gente pero no la logro ver,

LA SOL FA#

solo espero que mañana vuelva a la estación del querer,



SOL LA

la quiero tener porque sin su amor, mi sueño se ha marchado.





(PUNTEO)



FA# SOL

aun recuerdo esa mirada

LA

que ella a mi me dedicó,

FA# SOL

un lago de amor se forma

LA

dentro de mis ojos lloro.





cada tarde que oscurece surgen nuevas ilusiones otra vez,

solo espero ver su cuerpo en la llegada de ese tren

y yo miro entre la gente pero no la logro ver,

solo espero que mañana vuelva a la estación del querer,

la quiero tener porque sin su amor, mi sueño se ha marchado [Bis]







Letra subida por: Anónimo

Discos en los que aparece este acorde: Rebobinando

El acorde de La estación del querer (feat. Antonio Carmona) de Camela es una versión de la canción original realizada por colaboradores/usuarios de Coveralia.

¿Has encontrado algún error en esta página? Envíanos tu corrección del acorde