música
Buscador

Acorde de La Cruzada - Tierra Santa

Letra de La Cruzada



INTRO:



e|-------------------||----------------||

B|----0---0-0/2-1-0--||--3/5--3-1---0--||

G|------2------------||-----------2----||

D|--2----------------||----------------||

A|-------------------||----------------||

E|-------------------||----------------||



e|------------------||-----------------||

B|--3/5--3-1-0---0--||--0-2-0----------||

G|-------------2----||--------4-0-4-2--||

D|------------------||-----------------||

A|------------------||-----------------||

E|------------------||-----------------||



x2 => (en la 2da)

e|------2-3~-||--2-3-3/5-3-2-3--0--|-|--0-2-0--|

B|--3/5------||--------------------|-|---------|

G|-----------||--------------------|-|---------|

D|-----------||--------------------|-|---------|

A|-----------||--------------------|-|---------|

E|-----------||--------------------|-|---------|









bajo el sol

vi una espada brillar => e|--0-2-0--||



a lo lejos en el horizonte

la batalla contra los infieles => e|----2-3-3-3-3-2-----------0-2-0--||

B|--5-------------5-3-3-3-3--------||



vuelve a comenzar => e|--0-2-3-2-0---0-2-0--||

B|------------3--------||



han dejado

su tierra y su hogar => e|--0-2-0--||



x un campo de sangre y de muerte

la batalla contra los infieles => e|----2-3-3-3-3-2-----------0-2-0--||

B|--5-------------5-3-3-3-3--------||





vuelve a comenzar => e|--0-2-3-2-0---0-2-0--||

B|------------3--------||







x2

e|--3-3-3-3-2-0----0-2-3-2-0-3~-||

B|--------------3---------------||

G|------------------------------||

D|------------------------------||

A|------------------------------||

E|------------------------------||



x3(va seguido) => en la 3ra

e|--3-3-3-3-2-0----0-2-3-2-0--||--3-3-3-3-2-0---0-2-3-2-0-0~-||

B|--------------3-------------||--------------3--------------||

G|----------------------------||-----------------------------||

D|----------------------------||-----------------------------||

A|----------------------------||-----------------------------||

E|----------------------------||-----------------------------||



x2

(D-E)(D-E)(D-E)C



e|--3-3-3-3-2-0----0-2-3-2-0--||--5-5-5-5-3-2-0-2---0~-||

B|--------------3-------------||------------------3----||

G|----------------------------||-----------------------||

D|----------------------------||-----------------------||

A|----------------------------||-----------------------||

E|----------------------------||-----------------------||



C-D

E

Arriba en lo alto

rezandole a dios

se escuchan los gritos

de muerte y dolor

C D

resuenan hoy en la batalla

(D)E C-D

en un duelo de honor



E

La sangre ha te~ido

de rojo el lugar

los cantos de guerra

han dejado de hablar

C D

ondean banderas cruzadas

(D)E C-D

por la libertad





C D x2

--y en su honor esta su ley A|-7-7-7-8-7-7-10-7-7-8-7-7-||



C D x2

--y en su espada su poder A|-7-7-7-8-7-7-10-7-7-8-7-7-||





C D

--fronteras por conkistar

B C

--pecados por redimir

C D

https://www.coveralia.com/acordes/la-cruzada-tierra-santa.php

--batallas y guerras

B

por un justo fin





e|-----------------------------||-----------------------------||

B|-----------------------------||-----------------------------||

G|-----------------------------||-----------------------------||

D|--------9-7-9-10-9-7-9-7-----||--------9-7-9-10-9-7-9-7-----||

A|--7-7-7------------------10--||--7-7-7------------------10--||

E|-----------------------------||-----------------------------||





e|-------------------------------||----------------------------||

B|-------------------------------||----------------------------||

G|-------------------------------||----------------------------||

D|----------------7--------------||----------------------------||

A|--------10-8-10---10-8-10-8-7--||--------8-7-8-9-8-7-8-7-----||

E|--8-8-8------------------------||--7-7-7-----------------10--||





e|-----------------------------||-----------------------------||

B|-----------------------------||-----------------------------||

G|-----------------------------||-----------------------------||

D|--------9-7-9-10-9-7-9-7-----||--------9-7-9-10-9-7-9-7-----||

A|--7-7-7------------------10--||--7-7-7------------------10--||

E|-----------------------------||-----------------------------||





e|-------------------------------||----------------------------||

B|-------------------------------||----------------------------||

G|-------------------------------||----------------------------||

D|----------------7--------------||----------------------------||

A|--------10-8-10---10-8-10-8-7--||--------8-7-8-9-8-7-8-7-----||

E|--8-8-8------------------------||--7-7-7-----------------10--||





x2

e|--3-3-3-3-2-0----0-2-3-2-0-3~-||

B|--------------3---------------||

G|------------------------------||

D|------------------------------||

A|------------------------------||

E|------------------------------||



x3(va seguido) => en la 3ra

e|--3-3-3-3-2-0----0-2-3-2-0--||--3-3-3-3-2-0---0-2-3-2-0-0~-||

B|--------------3-------------||--------------3--------------||

G|----------------------------||-----------------------------||

D|----------------------------||-----------------------------||

A|----------------------------||-----------------------------||

E|----------------------------||-----------------------------||



Solo:

Sigue la guitarra de atras con los mismos akordes.







C D x2

--y en su honor esta su ley A|-7-7-7-8-7-7-10-7-7-8-7-7-||



C D x2

--y en su espada su poder A|-7-7-7-8-7-7-10-7-7-8-7-7-||





x2

C D

--fronteras por conkistar

B C

--pecados por redimir

C D

--batallas y guerras

B

por un justo fin.







x2

e|--3-3-3-3-2-0----0-2-3-2-0-3~-||

B|--------------3---------------||

G|------------------------------||

D|------------------------------||

A|------------------------------||

E|------------------------------||



x3(va seguido) => en la 3ra

e|--3-3-3-3-2-0----0-2-3-2-0--||--3-3-3-3-2-0---0-2-3-2-0-0~-||

B|--------------3-------------||--------------3--------------||

G|----------------------------||-----------------------------||

D|----------------------------||-----------------------------||

A|----------------------------||-----------------------------||

E|----------------------------||-----------------------------||



x2

(D-E)(D-E)(D-E)C



e|--3-3-3-3-2-0----0-2-3-2-0--||--5-5-5-5-3-2-0-2---0~-||

B|--------------3-------------||------------------3----||

G|----------------------------||-----------------------||

D|----------------------------||-----------------------||

A|----------------------------||-----------------------||

E|----------------------------||-----------------------||



e|--3-2---0~-||

B|------3----||

G|-----------||

D|-----------||

A|-----------||

E|-----------||

Letra subida por: Anónimo

Discos en los que aparece este acorde: Legendario

El acorde de La Cruzada de Tierra Santa es una versión de la canción original realizada por colaboradores/usuarios de Coveralia.

¿Has encontrado algún error en esta página? Envíanos tu corrección del acorde