música
Buscador

Acorde de La china - Porter

Intro y verso

Min 0:27-0:58

GI C#m G#m A

E-------------------------------------------------

B------------5----------/-----------/------------/

G--------6-----6---6---/--------4--/--------6---/

D------6---6-----6----/------6----/------7-----/

A----4---------------/----6------/----7-------/

E-------------------/--4--------/--5---------/



GI E

E-------------------------------------

B-------------9---------------9-------

G---------9-----9---9-----9-----9---9-

D-------9---9-----9-----9---9-----9---

A-----7---------------7---------------

E-------------------------------------



Min 0:35

C#m G#m A E

Dicen que se fue a buscar en el ombligo de la luna

C#m G#m A E

que trece veces veinte iba a orar

C#m G#m A E

que cuando vean el alba en el nopal



Min 0:58-1:27

GII

E-----9/16-16-16/11-11-11-11/12-12-12-12/14-14-14---

B---------------------------------------------------

G---------------------------------------------------

D---------------------------------------------------

A---------------------------------------------------

E---------------------------------------------------

*Si escuchan bien la canción, esta parte presenta algunas variaciones*



Min 0:58

C#m G#m A E

que griten todos ya llegamos de la tierra de Aztlán

C#m G#m A E

que griten todos ya llegamos de la tierra de Aztlán

C#m G#m A E

Solo esperan verse en el lugar

C#m G#m A E

abrazar el suelo y regresar



Min 1:28

GI C#m G#m A E

Mexhi, mexhi, mexhi mexhicana

GII

E-----9-9-9-9----------------------|--9-9-9-9---------------

B--------------9-9-9-9/12-12-------|----------9-9-9-9/12-12-

G-----6-6-6-6----------------------|--6-6-6-6--------------- x2

D--------------6-6-6-6/9--9--------|----------6-6-6-6/9--9--

A----------------------------------|------------------------

E----------------------------------|------------------------



Min 1:43

C#m G#m-A E

Me enseñó a esperar

C#m G#m-A E

despeinarnos de la noche



Min 1:43

GII

E-----9/16-16-16/11-11-11-11/12-12-12-12/14-14-14---

B---------------------------------------------------

G---------------------------------------------------

D--------------------------------------------------

A--------------------------------------------------

E---------------------------------------------------

*Si escuchan bien la canción, esta parte presenta algunas variaciones*





Min 1:58

GI C#m G#m A E

Mexhi, mexhi, mexhi mexhicana

GII

E-----9-9-9-9---------------------|--9-9-9-9---------------

B-------------9-9-9-9/12-12-------|----------9-9-9-9/12-12-

G-----6-6-6-6---------------------|--6-6-6-6--------------- x2

D-------------6-6-6-6/9--9--------|----------6-6-6-6/9--9--

A---------------------------------|------------------------

E---------------------------------|------------------------





Min 2:14



GI C#m G#m A E C#m G#m A E

GII

E----17----16----14----12------|---17----16----17----19-------24~----

B----20b22-19b21-17b19-15b19~--|---20b22-19b21-20b22-22b24~----------

G------------------------------|-------------------------------------

D------------------------------|-------------------------------------

A------------------------------|-------------------------------------

E------------------------------|-------------------------------------



Min 2:28

C#m G#m A E C#m G#m A E

Y cada noche, volando estaba

https://www.coveralia.com/acordes/la-china-porter.php
C#m G#m A C#m G#m A

hablar contigo sin emitir palabra

C#m G#m A C#m G#m A B

sin emitir palabra, sin emitir palabra





Min 2:55

GI C#m G#m A E

Mexhi, mexhi, mexhi mexicana

GII

E-----9-9-9-9---------------------|--9-9-9-9---------------

B-------------9-9-9-9/12-12-------|----------9-9-9-9/12-12-

G-----6-6-6-6---------------------|--6-6-6-6--------------- x4

D-------------6-6-6-6/9--9--------|----------6-6-6-6/9--9--

A---------------------------------|------------------------

E---------------------------------|------------------------





Min 3:25

GI

E----------------------------------|

B-----------------------7----------|

G-8h9-9-8h9-9-8h9-9-8h9---9--------|x6

D----------------------------------|

A----------------------------------|

E----------------------------------|



Min 3:25-4:18

GII

E-----16~-16~-16~-17~-16~---|-16~-16~-16~-14~-17~-16~--|

B---------------------------|--------------------------|

G---------------------------|--------------------------|

D---------------------------|--------------------------|

A---------------------------|--------------------------|

E---------------------------|--------------------------|



Min 3:40



E

Seres astrales, unidos uno al otro



Solo lo ve el cielo y los planetas







Min 3:55-4:18

E|----------------------|

B|----------------------|

G|-------4-----4--------|

D|----4h6---4h6---------|

A|--7-----7-------------|

E|----------------------|



Min 3:55

E

Y Cada noche te pido que cantemos



tus bellas melodías, tus bellas melodías





Min 4:18

E|--------7-----7-----------|

B|----7h9---7h9-------------|

G|--9-----9-----------------|

D|--------------------------|

A|--------------------------|

E|--------------------------|





Final



4:31-5:11



GI C#m G#m A E

E---------4----|-------------|-----------|------------------------

B--------------|--------4----|--------5--|------------------------

G--------6-----|-------------|-----------|--------4---------------

D------6-------|------6------|------7----|------6-----------------

A----4---------|----6--------|----7------|----7-------------------

E--------------|--4----------|--5--------|--0---------------------



C#m G#m A E

E--------------|-------------|-----------|---------------------

B----------4---|-------------|-----------|---------------------

G--------6-----|--------4----|--------5--|--------4------------

D------6-------|------6------|------7----|------6--------------

A----4---------|----6--------|----7------|----7----------------

E--------------|--4----------|--5--------|--0------------------





Min 4:43

GII

E---------------------------------------------------------|

B--9-7-------------------------------9-7------------5-4---|

G------9-8-6~-9-8~--4--4/6-(6)/9-8~------9-8-6~-4~--------|

D---------------------6-----------------------------------| x2

A---------------------------------------------------------|

E---------------------------------------------------------|



Letra subida por: Anónimo

Discos en los que aparece este acorde: Moctezuma

El acorde de La china de Porter es una versión de la canción original realizada por colaboradores/usuarios de Coveralia.

¿Has encontrado algún error en esta página? Envíanos tu corrección del acorde