música
Buscador

Acorde de La Carta Que No - Los Enemigos

Letra de La Carta Que No



Intro: x4

e|--2-2----5--|-7-5-7-5--5s10-10--10-10-|

B|--3-3----3--|-5-3-5-3--3s 8--8---8--8-|

G|*-2-2----0-*|-------------------------|

D|*--------0-*|-------------------------|

A|------4--2--|-------------------------|

E|---------3--|-------------------------|



Estrofa:

RE SIm LA SOL

e|-2-2-2-2--3-3-3-3-3--2-2--2----2-2-2h3--3-3-3-3--|

B|-3-3-3-3--3-3-3-3-3--3-3--2h3--2-2-2h3--3-3-3-3--|

G|-2-2-2-2-------------4-4--4----2-2-2----0-0-0-0--|

D|----------2-2-2-2-2--4-4--4----2-2-2----0-0-0-0--|

A|----------2-2-2-2-2--2-2--2----0-0-0----2-2-2-2--|

E|----------------------------------------3-3-3-3--|





RE SIm LA

Comprende amor



no me dejan

SOL

no me dejan regresar. e|-3s5-3-| e|-------|

B|-3s5-3-| B|-------|

G|-------| G|-------|

D|-------| D|-----0-|

A|-------| A|-0-2---|

E|-------| E|-------|



RE SIm LA

Comprendelo

SOL

mientras dejas de llorar.

RE SIm LA

Que no daria yo

SOL

por volverte a abrazar

RE SIm LA

Compréndelo, no me dejan

SOL

no me dejan regresar e|-----------------|

B|-----------------|

G|-----------------|

D|-------0-0h2p0-0-|

A|---0-2-----------|

E|-3---------------|



RE RE SOL

Habra que esperar,

RE RE SOL SIm

habra que esperar

LA

La fiesta al final... e|--9--9--9--10--9-7-5-|

B|-10-10-10--10-10-8-5-|

G|--9--9--9--11--9-7---|

D|---------------------|

A|---------------------|

E|---------------------|



SIm LA

...al final.





Intro



RE

Ahora soy viento

SIm LA

y te acaricio

SOL

y deseo más

RE

Tan sólo aliento

SIm LA SOL

que se niega a despertar

RE

https://www.coveralia.com/acordes/la-carta-que-no-los-enemigos.php

Busco y no encuentro

SIm LA

como siento

SOL

que sea tarde ya

RE

Tan sólo aliento

SIm LA SOL

que se niega a despertar





RE RE SOL

Habra que esperar,

RE RE SOL SIm

habra que esperar

LA SIm

La fiesta al final...

LA

...al final.



Intro



Solo: (RE SIm LA SOL)x2



e|-------------------------------------------------------------------------

B|----------10p8p7----8-10p8p7----7s10v---13p11p10-10v--11-13p11p10----10v-

G|------7v---------7-----------7------------------------------------11-----

D|--7-9--------------------------------------------------------------------

A|-------------------------------------------------------------------------

E|-------------------------------------------------------------------------

( x2 )



-------------10-10-------------------------|

-11-13p11p10---------15-17p15p14----21(bu)-|

---------------------------------15--------|

-------------------------------------------|

-------------------------------------------|

-------------------------------------------|





RE

Mientras esperas

SIm LA

lee esta carta

SOL

que no es de amor, es de amar

RE

La misma tarta

SIm LA SOL

qué partiste partirás.





RE RE SOL

Habra que esperar,

RE RE SOL SIm

habra que esperar

LA SIm

La fiesta al final...

LA

...al final.





e|---------7h8p7-7-------------------------7h8p7-7-------------------------

B|-------------------------------------------------------------------------

G|-----------------9p7-----------------------------9p7---------7-7h9p8p7-7-

D|---------------------------------------------------------5s7-7-7h9p8p7-7-

A|-----5v--------------5v------5h7p5---5v--------------5v--7s9-------------

E|-5-7---------------------5h7-------7-------------------------------------



--------------------------------------------------------2-|

--------------------------------------------------------3-|

--------------------------------------------------------2-|

-------0-0h2p0-0--------0-0h2p0-0--4(bd)-0--------------0-|

---0-2--------------0-2--------------------2-0-0h2p0-0----|

-3----------------3---------------------------------------|





Letra subida por: Anónimo

Discos en los que aparece este acorde: Hasta El Lunes

El acorde de La Carta Que No de Los Enemigos es una versión de la canción original realizada por colaboradores/usuarios de Coveralia.

¿Has encontrado algún error en esta página? Envíanos tu corrección del acorde