música
Buscador

Acorde de La Cajita - Canteca De Macao

Letra de La Cajita

fa#m - SI7 - sol#m - do#m - fa#m - SI7 - MI

fa#m - SI7 - sol#m - dom# - fa#m - SI7





----7--5--4-----------------------------------------------

-------------7--5--------5--------------------------------

-------------------4--6-----------------------------------

----------------------------------------------------------

----------------------------------------------------------

----------------------------------------------------------

(el punteillo acaba con un "tacatán" en MI



fa#m SI7 sol#m

Que si los ruidos, edificios, los metros, las prisas, los parkings,

do#m fa#m SI7 MI

atascos, cojones, maderos!!!.... yo no quiero estar

fa#m SI7 sol#m do#m

que si los metros, las calles, los ruidos, los parkings, las prisas,

fa#m SI7 MI

maderos, cojones!!! Yo viá reventá

fa#m SI7 MI

Que yo me voy con mi cajita, mi guitarra y al compás

fa#m SI MI

y unos cuantos colegas que no quieran pensar

SI LA# LA SI7 MI

que yo me voy con mi cajita, mi guitarra y al compás

fa#m SI7 MI

y unos cuantos colegas, y unos porrazos de más



fa#m - SI7 - sol#m - do#m - fa#m - SI7 - MI

fa#m - SI7 - sol#m - dom# - fa#m - SI7





----7--5--4-----------------------------------------------

-------------7--5--------5--------------------------------

-------------------4--6-----------------------------------

----------------------------------------------------------

----------------------------------------------------------

----------------------------------------------------------

(el punteillo acaba con un "tacatán" en MI,

que esta vez enlaza con un lam y SI7 xa terminar la cadencia en mim,

que es el acorde q enlaza la bajada de tonalidad del tema de MI a RE)

https://www.coveralia.com/acordes/la-cajita-canteca-de-macao.php



mim - LA - RE x 2

fa#m-fam-mim - LA - Re

mim- LA - RE

mim LA RE

Si tu risa me hace sentir bien

mim LA RE fa#m-

y el sentío me mueve los pies

fam mim LA RE

paro y pienso esta noche otra vez

mim LA RE

qué camino habré de escoger

mim LA RE

y de tanto y tanto pensar

mim LA RE fa#m-

y entre tanta y tanta maldad

fam mim LA RE

yo me quedo con una verdad

SOL

sí, yo me quedo con una verdad



Estribillo

mim LA

Que vivir sólo se hace una vez

RE Sim

que pa soñar no hace falta tener

SOL LA RE

que con dos duros y algunas sonrisas lo vas a entender

mim LA RE RE7

que yo me voy con mi cajita, mi guitarra y al compás

mim LA RE

y unos cuantos colegas que no quieran pensar

fa#m fam mim LA RE RE7

que yo me voy con mi cajita, mi guitarra y al compás

mim LA RE RE7

y unos cuantos colegas y unos copazos de más

mim LA RE Sim SOL

leele leele le le leee le le lee le le le leeee le leee

LA RE

leile le le laaaaa x X al cubo

Letra subida por: Anónimo

Discos en los que aparece este acorde: Camino De La Vida Entera

El acorde de La Cajita de Canteca De Macao es una versión de la canción original realizada por colaboradores/usuarios de Coveralia.

¿Has encontrado algún error en esta página? Envíanos tu corrección del acorde