música
Buscador

Acorde de King - Tunng

Letra de King

Key: Cm







e|--------------------------------------------------------------------------|

B|--------------------------------------------------------------------------|

G|--------------------------------------------------------------------------|

D|----------------------------------3-----3-----3-----3-----5-----5----5---5|

A|-3--6--3--6--3--6--3--6--3--6--3--6--3--6--3--6--3--6--6-----6-----6--6---|

E|--------------------------------------------------------------------------|



When the chords come in:



Cm

Four foot nothing knees, stained with dirt

F

When we went hiding, why don't you seek?

Eb

No one came looking for me

Cm

Your head is restless with greed



Cm

She's carried on shoulders, like a little king

F

she is worshipped and adored

https://www.coveralia.com/acordes/king-tunng.php

Eb

invisibly worshipped and ignored

Cm

and no one came looking for me



Cm

Twisted metal and underground deeds

F

this weightless town is not good for me

Eb

Your head is restless with greed

Cm

Your fate laid down in deep.



That sweet little melody (hummed):



e|--3--6----3h4p3----------------|

B|------------------4------------|

G|-------------------------5-----|

D|-------------------------------|

A|-------------------------------|

E|-------------------------------|







Letra subida por: Anónimo

Discos en los que aparece este acorde: Good Arrows

El acorde de King de Tunng es una versión de la canción original realizada por colaboradores/usuarios de Coveralia.

¿Has encontrado algún error en esta página? Envíanos tu corrección del acorde