música
Buscador

Acorde de Kicking And Screaming - Miley Cyrus

Letra de Kicking And Screaming

(intro)



E|---------------------|

B|---------------------|

G|----9------9---------|

D|---------------------|

A|-7----7-7----7-------|

E|---------------------|



(verso)

E|------------------------------------------|

B|------------------------------------------|

G|----------------------------------------2-|

D|-----9-8--9------9-8--9------9-8--9---5-2-| X2

A|--------------------------------------5-0-|

E|-0------------0-----------0-----------3---|



(chorus)

E|--------------------------------|

B|-------------3------------------|

G|-------------2-X8--5-----2------|

D|-2-----5-----0-----5-X4--2-X4---| X2

A|-2-X8--5-X8--------3-----0------|

E|-0-----3------------------------|



(intro)

E|---------------------|

B|---------------------|

G|----9------9---------|

D|---------------------|

A|-7----7-7----7-------|

E|---------------------|



(first part of the next verse - just mute the strings and listen for the strum pattern)



(verso)

E|------------------------------------------|

B|------------------------------------------|

G|----------------------------------------2-|

D|-----9-8--9------9-8--9------9-8--9---5-2-| X2

A|--------------------------------------5-0-|

E|-0------------0-----------0-----------3---|



(chorus)

E|--------------------------------|

B|-------------3------------------|

G|-------------2-X8--5-----2------|

D|-2-----5-----0-----5-X4--2-X4---| X4

A|-2-X8--5-X8--------3-----0------|

E|-0-----3------------------------|



(this next part is awesome)

E|------------------------|

B|------------------------|

G|------------------------|

D|------------------0h2---| X4

A|------------0-1-2-------|

E|-0--2-0-3-0-------------|



(intro)



E|-------------------|

B|-------------------|

G|----9----9---------|

D|-------------------|

A|-7----7-----7------|

E|-------------------|



(verso)

E|------------------------------------------|

B|------------------------------------------|

G|----------------------------------------2-|

D|-----9-8--9------9-8--9------9-8--9---5-2-| X2

A|--------------------------------------5-0-|

E|-0------------0-----------0-----------3---|



(second time, don't play the G or A chord and play)

E|-----------|

B|-----------|

G|----9------|

D|-----------|

A|-7----7----|

E|-----------|



(chorus)

E|--------------------------------|

B|-------------3------------------|

G|-------------2-X8--5-----2------|

D|-2-----5-----0-----5-X4--2-X4---| X4

https://www.coveralia.com/acordes/kicking-and-screaming-miley-cyrus.php

A|-2-X8--5-X8--------3-----0------|

E|-0-----3------------------------|



E|------------------------|

B|------------------------|

G|------------------------|

D|------------------0h2---| X4

A|------------0-1-2-------|

E|-0--2-0-3-0-------------|



Don't keep me waiting, anticipating

Treating me like a fool

I got news for you

I'm turning my back

I'm dropping a bomb on you



You want me

You need me

Believe me, you'll be callin'

You love me

You hate me

Believe me, you'll come crawlin'



So get down and get off

Let me show you what you'll be missing

We break up, you break down

Gonna drag you through this kicking and screaming



Don't keep me guessing your favorite obsession

Don't get me a lame excuse

Is it me that you're messing

It's the same old confession

You're the one with something to lose



Watch out now

A blackout

There's no doubt

You can't have it

Control you

I'll own you

I'll show you, but you still can't have it



So get down and get off

Let me show you what you'll be missing

We break up, you break down

Gonna drag you through this kicking and screaming

So get down and get off

You're not the only one that I've been missing

We break up, you break down

Gonna drag you through this kicking and screaming



You'll be kicking and screaming

You'll be kicking and screaming

But I'm so deceiving, you'll be kicking and screaming



Watch out now

You'll find out

You'll cry out

There's no one above me

I play hard

Don't run far

Come back now, I really do like you...



So get down and get off

Let me show you what you'll be missing

We break up, you break down

Gonna drag you through this kicking and screaming

So get down and get off

You're not the only one that I've been missing

We break up, you break down

Gonna drag you through this kicking and screaming



You'll be kicking and screaming

You'll be kicking and screaming



Kicking and screaming



Kicking

And

Screaming



| / slide up

| slide down

| h hammer-on

| p pull-off

| ~ vibrato

| + harmonic

| x Mute note

El acorde de Kicking And Screaming de Miley Cyrus es una versión de la canción original realizada por colaboradores/usuarios de Coveralia.

¿Has encontrado algún error en esta página? Envíanos tu corrección del acorde