música
Buscador

Acorde de Just The Two Of Us - Bill Withers

Letra de Just The Two Of Us



Chords:

----------------------------

C | 0,3,2,0,1,0

B7 | 0,2,1,2,0,2

Em | 0,2,2,0,0,0

G | 3,2,0,0,0,3 or 3,4,4,5,3,3

-----------------------------





Intro : C B7 Em G - C B7 Em G



or



e|-----------------------------------------3-3p-x----|

B|-----------------------------------------0-0p-x----|

G|-0-x--2-x--0-x--0---------0-x--2-x--0-x--0-0p-x----|

D|-2-x--1-x--2-x--0-0h2p0---2-x--1-x--2-x--0-0p-x----|

A|-3-x--2-x--2-x--2---------3-x--2-x--2-x--2-2p-x----|

E|-----------------------------------------3-3p-x----|



you can replace "deads note" by "slap"





-----------------------------------------------------------------



Verse-



C B7 Em

I see the crystal rain drops fall,



G C

and the beauty of it all



B7 Em G

Is when the sun comes shining through



C B7 Em

To make those rainbows in my mind,



G C

When I think of you sometime,

https://www.coveralia.com/acordes/just-the-two-of-us-bill-withers.php



B7 Em G

And I want to spend some time with you.





Chorus-



C B7 Em G

Just the two of us, we can make it if we try,



C B7 Em G

Just the two of us, just the two of us.



C B7 Em G

Just the two of us, building castles in the sky,



C B7 Em G

Just the two of us, you and I.





Verse 2-

We look for love,

no time for tears,

wasted water's all that is,

And it don't make no flowers grow.

Good things might come to those who wait,

But not for those who wait too late

We've got to go for all we know.





Repeat chorus





I hear the crystal raindrops fall on the window down the hall

And it becomes the morning dew.

And Darling, when the morning comes

And I see the morning sun,

I want to be the one with you.







Letra subida por: Anónimo

El acorde de Just The Two Of Us de Bill Withers es una versión de la canción original realizada por colaboradores/usuarios de Coveralia.

¿Has encontrado algún error en esta página? Envíanos tu corrección del acorde