música
Buscador

Acorde de Just Like Heaven - Katie Melua

Letra de Just Like Heaven

Introdução: 

Violão 1 (0:00-1:42)

A E Bm D

e|-----------------------------------------------2----2--------|

B|-----2----2--------0----0--------3----3-------3------3-------|

G|----2------2------1------1------4------4-----2----2----------|

D|---2----2--------2----2--------4----4-------0----0-----------|

A|--0----0--------2----2--------2----2-------------------------|

E|-------------------------------------------------------------|



Violão 2 (0:08-0:29)

e|-------------------------------------------------------------|

B|--14-14-14-12-10--9-9-9-7-5--3-0h2-3--5-3-2-0-2-3-2-0--------|

G|------------------------------------------------------2------|

D|-------------------------------------------------------------|

A|-------------------------------------------------------------|

E|-------------------------------------------------------------|



e|---------------------------12-12-----------------------------|

B|--3h5-----12h14p12-12-10-9-------10~---12-14-15-14-10--------|

G|------1~-----------------------------9----------------9~-----|

D|-------------------------------------------------------------|

A|-------------------------------------------------------------|

E|-------------------------------------------------------------|



e|-------------------------------------------------------------|

B|--10-9-7-5-3-2h3p2-0----3p2p0-0h2p0-2-0----------------------|

G|---------------------2------------------2-1------------------|

D|-------------------------------------------------------------|

A|-------------------------------------------------------------|

E|-------------------------------------------------------------|



Parte 1:

A E

Show me how you do that trick

Bm D

The one that makes me scream he said

A E

The one that makes me laugh he said

Bm D

And threw his arms around my neck

A E

Show me how you do it

Bm D

And I promise you I promise that

A E

I'll run away with you

Bm D

I'll run away with you





Violão 2 (0:59-1:13)



e|-------------------------------------------------------------|

B|--14-14-14-12-10--9-9-9-7-5--3-0h2-3--5-3-2-0-2-3-2-0--------|

G|-------------------------------------------------------------|

D|-------------------------------------------------------------|

A|-------------------------------------------------------------|

E|-------------------------------------------------------------|



e|-------------------------------------------------------------|

B|--15-14-12-14-15-17-10h12--10h12p10-9---7-7~--5-3-2-0--------|

G|--------------------------------------9---------------2~-----|

D|-------------------------------------------------------------|

A|-------------------------------------------------------------|

E|-------------------------------------------------------------|



*Violão 2 (1:16-1:28)

*Esse solo ocorre durante a segunda parte, aconcelho a ouvir a música para localizá-lo.

e|-----------------------------------------------------|

B|--14-12-10~--12-14-15-12-14~--15p14-12-10-9-7-5------|

G|-----------------------------------------------------|

D|-----------------------------------------------------|

A|-----------------------------------------------------|

E|-----------------------------------------------------|



Parte 2:

A E

Spinning on that dizzy edge

Bm D

I kissed his face and kissed his head

A E

And dreamed of all the different ways

Bm D

I had To make him glow

A E

Why are you so far away? he said

Bm D

Why won't you ever know that

A E

I'm in love with you

Bm D

That I'm in love with you



https://www.coveralia.com/acordes/just-like-heaven-katie-melua.php

F#m G

You, soft and only

F#m G

You,lost and lonely

F#m G D

You, strange as angels

D

Dancing in the deepest oceans

D

Twisting in the water

A

You're just like a dream

E Bm D

You're just like a dream





Violão 1 (2:00-3:00)

A E Bm D

e|-----------------------------------------------2----2--------|

B|-----2----2--------0----0--------3----3-------3------3-------|

G|----2------2------1------1------4------4-----2----2----------|

D|---2----2--------2----2--------4----4-------0----0-----------|

A|--0----0--------2----2--------2----2-------------------------|

E|-------------------------------------------------------------|



Violão 2 (2:00-2:30)

e|-----------------------------------------------------|

B|--17-15-14-12-12h14h15-14-10-14-15-17h19-10h12-------|

G|-----------------------------------------------------|

D|-----------------------------------------------------|

A|-----------------------------------------------------|

E|-----------------------------------------------------|



e|-----------------------------------------------------|

B|--14-14-14-12-12-10--9-9-9-7-7-5--3-0h2-3--???-------|

G|-----------------------------------------------------|

D|-----------------------------------------------------|

A|-----------------------------------------------------|

E|-----------------------------------------------------|



e|-----------------------------------------------------|

B|--2-2-3-3-5-7-7-9-9-10--12-14-15---------------------|

G|---------------------------------7-------------------|

D|-----------------------------------------------------|

A|-----------------------------------------------------|

E|-----------------------------------------------------|



e|-----------------------------------------------------|

B|--2h3p2-0-2-3-3-2-0----------------------------------|

G|--------------------2-4-6-6-6------------------------|

D|-----------------------------------------------------|

A|-----------------------------------------------------|

E|-----------------------------------------------------|



e|-------------------------------------------------------------|

B|--7h9-10-9--7-5-7-9-10-3--???---17-15-14-12-10-17-17-17~-----|

G|-------------------------------------------------------------|

D|-------------------------------------------------------------|

A|-------------------------------------------------------------|

E|-------------------------------------------------------------|



Parte 3:

A E

Daylight licked me into shape

Bm D

I must have been asleep for days

A E

And moving lips to breathe his name

Bm D

I opened up my eyes

A E

And found myself alone alone

Bm D

Alone above a raging sea

A E

That stole the only boy I loved

Bm D

And drowned him deep inside of me



F#m G

You, soft and only

F#m G

You,lost and lonely

F#m G

You, just like heaven



F#m G

You, soft and only

F#m G

You, lost and lonely

F#m G D

You, just like heaven

Letra subida por: Anónimo

El acorde de Just Like Heaven de Katie Melua es una versión de la canción original realizada por colaboradores/usuarios de Coveralia.

¿Has encontrado algún error en esta página? Envíanos tu corrección del acorde