música
Buscador

Acorde de Junio Del 44 - Santelmo

Letra de Junio Del 44

AFINACION: D-A-F-C-G-C



Intro:



D---3-----3-----3-----3-----5-----5-----5-----5-----3-----3-----3-----3----

A-----3-----3-----3-----3-----6-----6-----6-----6-----3-----3-----3-----3--

F-------3-----3-----3-----3-----7-----7-----7-----7-----3-----3-----3-----3

C--------------------------------------------------------------------------

G--------------------------------------------------------------------------

C--------------------------------------------------------------------------



D-3-----3-----3-----3-----3-----3-----3-----3-----5-----5-----5-----5-----

A---5-----5-----5-----5-----3-----3-----3-----3-----6-----6-----6-----6---

F-----5-----5-----5-----5-----3-----3-----3-----3-----7-----7-----7-----7-

C-------------------------------------------------------------------------

G-------------------------------------------------------------------------

C-------------------------------------------------------------------------



D--6-----6-----5-----5-----3-----3-----3-----3-----

A----8-----8-----6-----6-----3-----3-----3-----3---

F------7-----7-----7-----7-----3-----3-----3-----3- X2

C--------------------------------------------------

G--------------------------------------------------

C--------------------------------------------------



Junio del 44, |

a punto de amanecer, |

ya son las 6 del dia D, | SOBRE INTRO

sigo pensando en tí! |



D---------------------------------------------------------------------

A---------------------------------------------------------------------

F---------------------------------------------------------------------

C---8-7--555--7-888-7-5-3333----8-7--555--7-888-7-5-10101010----------

G---8-7--555--7-888-7-5-3333----8-7--555--7-888-7-5-10101010----------

C---8-7--555--7-888-7-5-3333----8-7--555--7-888-7-5-10101010----------



D---------------------------------------------------------------------

A---------------------------------------------------------------------

F-------------------------------5788-7575-----------------------------

C---8-7--555--7-888-7-5-3333----5788-7575-8-5-------------------------

G---8-7--555--7-888-7-5-3333----3566-5353-8-5-------------------------

C---8-7--555--7-888-7-5-3333--------------8-5-------------------------





D--------------------------------------------

A--------------------------------------------

F-------------------------------------------- Acompañamiento puente...

C-----3333333....---------------------------- (mini solo pa'l futuro)

G-----3333333....----------------------------

C-----3333333....----------------------------





Te quisiera escribir,

y contarte como es Normandía.

Ahora el mar es azul

aunque en sueños en rojo lo ví.



En mi carta de amor,

carta que espero recibas,

volveré a expresar

cuanto echo de menos mi hogar.



D--------------------------------------------------

A--------------------------------------------------

F--------------------------------------------------

C----5--8--3----5--8--10---5--8--3--1--3--5-------- x2

G----5--8--3----5--8--10---5--8--3--1--3--5--------

C----5--8--3----5--8--10---5--8--3--1--3--5--------







En la distancia veo la playa,

el final.

Ya nadie habla,

¡Alguien rompe a llorar!



D--------------------------------------------------------------------------

A--------------------------------------------------------------------------

F-(5)-7...--(5)-7...--7---(5)-7...--(5)-7...----7---(5)-7...---7----10-----

C-(5)-7...--(5)-7...--7---(5)-7...--(5)-7...----7---(5)-7...---7----10-----

G-(3)-5...--(3)-5...--5---(3)-5...--(3)-5...----5---(3)-5...---5----8------

C--------------------------------------------------------------------------



[ESTRIBILLO]

El corazón se acelera,

solo nos queda rezar!

Cierro los ojos te siento,

casi te puedo tocar!



Oigo tu voz en el viento,

me lleva a ese otro lugar!

De verde esmeralda sus campos,

¡Irlanda me quiere esperar!



Estribillo:

D---------------------------------------------------------------------

A---------------------------------------------------------------------

F-------------------------------------------------------88-77---------

C----555--888--33...----555--88--10...---55--88--33...--88-77-55...--- x2

G----555--888--33...----555--88--10...---55--88--33...--66-55-55...---

C----555--888--33...----555--88--10...---55--88--33...--------55...---





No soy nadie, ¡lo se!,

aquí tan sólo uno más.

Como irlandés, hoy lucharé,

¡Por nuestra libertad!



D--------------------------------------------------

A--------------------------------------------------

F--------------------------------------------------

C----5--8--3----5--8--10---5--8--3--1--3--5-------- x2

G----5--8--3----5--8--10---5--8--3--1--3--5--------

C----5--8--3----5--8--10---5--8--3--1--3--5--------



Un blanco fácil,

somos carne de cañón,

hacia delante,

¡Demostrar vuestro valor¡





https://www.coveralia.com/acordes/junio-del-44-santelmo.php

D-----------------------------------------------------------------------

A-----------------------------------------------------------------------

F--(5)-7...---(5)-7...---7--(5)-7...---(5)-7...---7---(5)-7...---7---10-

C--(5)-7...---(5)-7...---7--(5)-7...---(5)-7...---7---(5)-7...---7---10-

G--(3)-5...---(3)-5...---5--(3)-5...---(3)-5...---5---(3)-5...---5---8--

C-----------------------------------------------------------------------





[ESTRIBILLO]

El corazón se acelera,

solo nos queda rezar!

Cierro los ojos te siento,

casi te puedo tocar!



Oigo tu voz en el viento,

me lleva a ese otro lugar!

De verde esmeralda sus campos,

¡Irlanda me quiere esperar!



Estribillo:

D-----------------------------------------------------------------------

A-----------------------------------------------------------------------

F-------------------------------------------------------88-77-----------

C----555--888--33...----555--88--10...---55--88--33...--88-77-55...----- x2

G----555--888--33...----555--88--10...---55--88--33...--66-55-55...-----

C----555--888--33...----555--88--10...---55--88--33...--------55...-----



D-------------------------------------------------------

A-------------------------------------------------------

F------------------------------------------------------- puente...

C-----333-333-333-|-333-333-333-|-5555....-------------- (solo y escalas

G-----333-333-333-|-333-333-333-|-5555....-------------- pa'l futuro)

C-----333-333-333-|-333-333-333-|-5555....--------------

aqui van las escalas



[SOLO] Aún hay cosas que hace Jero que yo solo puedo mirar...



Acompañamiento Solo:



D--------------------------------------------------

A--------------------------------------------------

F--------------------------------------------------

C----5--8--3----5--8--10---5--8--3--1--3--5-------- x2

G----5--8--3----5--8--10---5--8--3--1--3--5--------

C----5--8--3----5--8--10---5--8--3--1--3--5--------





En la distancia veo la playa,

el final.

Ya nadie habla,

¡Alguien rompe a llorar!



D-------------------------------------------------------------------------

A-------------------------------------------------------------------------

F--(5)-7...---(5)-7...---7--(5)-7...---(5)-7...---7----(5)-7...---7---10--

C--(5)-7...---(5)-7...---7--(5)-7...---(5)-7...---7----(5)-7...---7---10--

G--(3)-5...---(3)-5...---5--(3)-5...---(3)-5...---5----(3)-5...---5---8---

C-------------------------------------------------------------------------



[ESTRIBILLO]



El corazón se acelera,

solo nos queda rezar,

cierro los ojos te siento,

casi te puedo tocar.



Oigo tu voz en el viento

me lleva a ese otro lugar,

de verde esmeralda sus campos.

Esperarán, esperarás, ¡no olvidarás! (x2)



Estribillo:

D-------------------------------------------------------------------------

A-------------------------------------------------------------------------

F-------------------------------------------------------888-777-----------

C----555--888--33...----555--88--10...---55--88--33...--888-777-55...-----

G----555--888--33...----555--88--10...---55--88--33...--666-555-55...-----

C----555--888--33...----555--88--10...---55--88--33...----------55...-----



D-------------------------------------------------------------------------

A-------------------------------------------------------------------------

F----------------------------------------------888-777--888-777--888-777--

C--555--888--33...---555-88--10...-55-88-33...-888-777--888-777--888-777--

G--555--888--33...---555-88--10...-55-88-33...-666-555--666-555--888-777--

C--555--888--33...---555-88--10...-55-88-33...----------------------------



SEGUNDA VEZ, SUBE UN TONO...



Estribillo:

D-------------------------------------------------------------------------

A-------------------------------------------------------------------------

F---------------------------------------------------------1010-99---------

C--777--101010-55...--777--101010--12...--77--1010--55...-1010-99-77...---

G--777--101010-55...--777--101010--12...--77--1010--55...-88---77-77...---

C--777--101010-55...--777--101010--12...--77--1010--55...---------77...---



D----------------------------------------------

A----------------------------------------------

F----------------------------------------------

C----777--101010--55...----777--101010--12...--

G----777--101010--55...----777--101010--12...--

C----777--101010--55...----777--101010--12...--



D----------------------------------------------------------

A----------------------------------------------------------

F------------------101010-999-101010-999-101010-999...-----

C-77--1010--55...--101010-999-101010-999-101010-999...-----

G-77--1010--55...--888----777-888----777-888----777...-----

C-77--1010--55...------------------------------------------



Final:

D--------------------------------------------

A--------------------------------------------

F--------------------------------------------

C-----3333333....----------------------------

G-----3333333....----------------------------

C-----3333333....--|--------------------------

ESCALA...





Letra subida por: Anónimo

Discos en los que aparece este acorde: Santelmo , Santelmo

El acorde de Junio Del 44 de Santelmo es una versión de la canción original realizada por colaboradores/usuarios de Coveralia.

¿Has encontrado algún error en esta página? Envíanos tu corrección del acorde