música
Buscador

Acorde de Juneau - Funeral For A Friend

Letra de Juneau



Key: B



Tuning: Standard EADGBe



Chords used:

E - 022100

F# - 244322

G#m - 466444





Intro: E--F#-G#m--B





Chorus:



Sing:

E F#

Tied to the testing of wills

G#m B

Where my heart breaks and spills

E F#

Left to the sight of the sky

G#m B E

In your arms I'm defined



Growl:

We're thrown to the wolves



Sing:

F# G#m B E

in the minds of your enemies



And I'm a stone in the eyes



Growl:

F# G#m B E

Of your foolishness





Guitar 2: in "we're thrown"

e|---2---0-------|--------------------------------------------------|

B|-0---0---0-4-0-|------------------------------2-2--0-0--2--0--2-0-|

G|---------------|---4---3-4-3------4---3-4-3-----------------------|

D|---------------|-4---4-------4--4---4-------4---------------------| x2

A|---------------|--------------------------------------------------|

E|---------------|--------------------------------------------------|

x4





Interlude 1:

E--F#-G#m--B- x2



Guitar 2:

e|-------------|

B|-------------|

G|---4--3-4----|

D|-4---------4-| x8

A|-------------|

E|-------------|





Verse:



Growl:

E

Well if this is what

I'm meant for

G#m B

I'm No longer interesting

E

Fall forward just to

even the score

G#m B

Just a point to you



https://www.coveralia.com/acordes/juneau-funeral-for-a-friend.php



(Repeat Chorus)





Verse 2:

E

And I'm nothing more

than a line in your book

Yet I'm nothing more

E

than a line in your book

Yet I'm nothing more

than a line in your book

Yet I'm nothing more

E G#m

than a line in your book

E

In your book

G#m

In your book





Guitar 1: "line in your book"

E G#m

e|-----2-----2-----|-----2-----2-----|

B|---------------0-|---0-----0-----0-|

G|-----------------|-1-----1-----1---|

D|-2-2---2-2---2---|-----------------| x2

A|-----------------|-----------------|

E|-----------------|-----------------|

x2 x2



Guitar 2:

e|-------14--------14-----|

B|-12-12-----12-12-----12-|

G|------------------------|

D|------------------------| x4

A|------------------------|

E|------------------------|





Interlude 2:

E--F#-G#m--B- x2



Guitar 2:

e|----------------|

B|----------------|

G|-4---8--9-8-6-4-|

D|-x---x--x-x-x-x-| x2

A|-2---6--7-6-4-2-|

E|----------------|





Bridge:



Growl:

E F# G#m B

Just A point To You

E F# G#m B

Just A point To You





Outro:

E

Yet I'm nothing more

F#

Yet I'm nothing more

G#m B

Than a line in your book

E

Yet I'm nothing more

F# G#m E F# G#m B(hold)

Than a line in your book





Letra subida por: Anónimo

El acorde de Juneau de Funeral For A Friend es una versión de la canción original realizada por colaboradores/usuarios de Coveralia.

¿Has encontrado algún error en esta página? Envíanos tu corrección del acorde