música
Buscador

Acorde de Jugo De Tomate Frío - Sueter

s  o  /=slide
^=ligadura

INTRO

e|-------------------------|---------------------------|
B|-------------------------|---------------------------|
G|-7s9-12-9/7-7/5----------|--7s9-12-9/7-7/5-----------|x2
D|----------------7-5------|-----------------7-5--5h7v-|
A|--------------------7-7b-|---------------------7-----|
E|-------------------------|---------------------------|

e|----------------------|
B|----------------------|
G|--------------5--5----|
D|--------5-5^7---7--7--|x2
A|--5-5^7---------------|
E|----------------------|

LA7
La tierra que te da la vida
da un tiempo para decidir
eligiendo inteligentemente
todo el mundo podra ser feliz

Estribillo

SIm
Jugo de tomate frio
F#m
jugo de tomate frio
LA7
en las venas
en las venas deberas tener

RIFF 1
e|-----------------------|
B|--------5--------------|
G|------5-------5--------|
D|--5^7-----5^7---7----7-|
A|-----------------------|
E|-----------------------|

LA7
Si queres ser un terrible vago
todo el dia panza arriba y a dormir
o elegiste ser un tipo capo
siempre serio y que da temor  deberas tener

Estribillo

RIFF 2

e|--------------------------|
B|--------5-----------------|
G|------5-------------------|
D|--5^7-----5^7^5---5^7-5^7-|
A|----------------7---------|
E|--en esta parte^----------|
    usa hammer on


LA7
Si queres triunfar con las mujeres
tener muchas que lloren por vos
tendras que ser muy poco inteligente
tener dinero, y una buena voz

Estribillo

RIFF 2



RIFF 3
e|-----------------------|
B|-----------------------|
G|-----------------------|
D|-------5--5^7----------|
A|--5^7------------------|
E|-----------------------|
LA7
Si queres ser un hombre importante
que se hable todo el dia de vos
SI queres inmortalizarte
como heroe, asesino o semidios


Estribillo



OUTRO

e|-------------------------|---------------------------|
B|-------------------------|---------------------------|
G|-7s9-12-9/7-7/5----------|--7s9-12-9/7-7/5-----------|
D|----------------7-5------|-----------------7-5--5h7v-|
A|--------------------7-7b-|---------------------7-----|
E|-------------------------|---------------------------|

e|-------------------------|------------------------5--5-|
B|-------------------------|------------------------5--5-|
G|-7s9-12-9/7-7/5----------|--7s9-12-9/7-7/5--------6--6-|
D|----------------7-5------|-----------------7-5----7--7-|
A|--------------------7-7b-|---------------------7--7--7-|
E|-------------------------|------------------------5--5-|


Letra subida por: Pop

Discos en los que aparece este acorde: 20 Caras Bonitas , Completo , Elefantes En El Techo

El acorde de Jugo De Tomate Frío de Sueter es una versión de la canción original realizada por colaboradores/usuarios de Coveralia.

¿Has encontrado algún error en esta página? Envíanos tu corrección del acorde