música
Buscador

Acorde de Joven Enjaulado - Pier

Letra de Joven Enjaulado

Intro: E5-C5-D5-C5-B5-E5

E5-C5-D5-C5-E5 X2



A5

Te diste cuenta,

No es bueno estar así.



Riff: Riff 2:

E|-------------------------| |--------------------|

A|-------------------------| |--------------------|

D|-------------------------| |--------------------|

G|-------------------------| |--------------------|

B|---------5-3-5-3---------| |---------0---5-3-1-0|

E|-0-5-3-0---------0-5-3-0-| |-0-5-3-0---5--------|



Riff 1 x2

Los fantasmas del odio no sirven de nada



A5

Es la fuerza de tu alma,

no la rechaces no.



Riff 1 x2

El amor es infinito, si queres amar

Riff 1 Riff 2

Cerraduras trabadas para destrabar



Estribillo:

D5

Entusiasmas de ganas

C5

De pegar ese grito

D5 C5 B5 A5 G5

Porque esa jaula nene Te queda chica



Repite Intro



A5

Sonrisa que disfruta,

el que bien la disfruta



Riff 1 x2

Admirás cómo te mira, si podes mirar



A5

Basta de latidos

que hacen perseguir



Riff 1 x2

Basta de furiosas noches, sin poder sentir



https://www.coveralia.com/acordes/joven-enjaulado-pier.php

E5 D5

Adentro tuyo esta la vida,

C5 B5 D5

es hora de vivir, es hora de vivir





Estribillo



E5 y solo:



E|------------------------------------------------------------|

A|------------------------------------------------------------|

D|------------------------------------------------------------|

G|----------------------------12---------------------------12-|

B|----------------12----12-10-------------------12---12-10----|

E|-12-12-12-12-10----10----------12-12-12-12-10---10----------|



E|-------------------------------------------------------------------------------|

A|-------------------------------------------------------------------------------|

D|-------------------------------------------------------------------------------|

G|-----------------------------------------------------------------------12-9----|

B|---------------------------------------12---12----12-13-12-12-10-12-10---------|

E|15-15-15-14-14-14-15-15-15-15-17-14-14-14----12---12---------------------------|



E|------------------------------------------12------------------------------------------------------|

A|------------------------------------12-10---------------------------------------------------------|

D|12-----------------------------12-9------------12-------------------------------------------------|

G|---9-12--------------12---12-9---------------9----9-12------------------------12-12-12-12-12-12-9-|

B|--------10-h12-12-10---10------------------------------10---12-13-------12-12---------------------|

E|---------------------------------------------------------12-------12-12---------------------------|



E5 D5 C5 D5

E|12-12-12-10-8--8--8--s10---------------------|

A|14-14-14-12-10-10-10-s12---------------------|

D|14-14-14-12-10-10-10-s12---------------------|

G|-------------------------11-12----12-11-12-9-|

B|-------------------------------10------------|

E|---------------------------------------------|





Adentro tuyo esta la vida,

es hora de vivir, es hora de vivir



Estribillo X2



Intro X2



E5



Fin

Letra subida por: Anónimo

Discos en los que aparece este acorde: Gladiadores Del Rock , La Ilusion Que Me Condena

El acorde de Joven Enjaulado de Pier es una versión de la canción original realizada por colaboradores/usuarios de Coveralia.

¿Has encontrado algún error en esta página? Envíanos tu corrección del acorde