música
Buscador

Acorde de Jimmy Jazz - The Clash

Letra de Jimmy Jazz

Intro:  A    E    F#m   D   A D A E 



A F#m

The police walked in for Jimmy Jazz

A D

I said, he ain't here, but he sure went past

A E A D A E

Oh, you're looking for Jimmy Jazz

A F#m

Sattamassagana for Jimmy Dread

A D

Cut off his ears and chop off his head

A E A D A E

Police cam looking for Jimmy Jazz

A F#m

So if you're gonna take a message 'cross the town

A D

Maybe put it down somewhere over the other side

A E A D A E

See it gets to Jimmy Jazz

A F#m

Don't you bother me, not anymore

A D

I can't take this tale, oh, no more

A E A D A E

It's all around, Jimmy Jazz

A F#m A D

J-a-zee zee J-a-zed zed

A E A D A E

https://www.coveralia.com/acordes/jimmy-jazz-the-clash.php
J-a-zed zed Jimmy Jazz

A

And then it sucks, he said, suck that

A F#m A

So go look all around, you can try your luck, brother

D

And see what you found

A E A D A

But I guarantee you it ain't your day your day, it ain't

E

your day.

A

Chop Chop!

ocultar esta pestaña Solo:

E----------------------------------------------5s0--------

B-----------------2---2-------2-2-2-2h0---5b-5-----3-1----

G------2///14-2-2---2-------2-----------2---------------2-

D-2s4-------------------2s4-------------------------------

A---------------------------------------------------------

E---------------------------------------------------------

E-----------------------------0-2-5-9-12-9-12-9s7-9-7-5----

B-1-3-5-3-1----------------1b2-----------------------------

G----------------2-2-----2---------------------------------

D------------2s4-----2s4-----------------------------------

A----------------------------------------------------------

E----------------------------------------------------------





Letra subida por: Anónimo

Discos en los que aparece este acorde: The Essential Clash , London Calling

El acorde de Jimmy Jazz de The Clash es una versión de la canción original realizada por colaboradores/usuarios de Coveralia.

¿Has encontrado algún error en esta página? Envíanos tu corrección del acorde