música
Buscador

Acorde de Jerk It Out (Åhlund) - Caesars

Letra de Jerk It Out (Åhlund)

[Intro]



G#m B F# E

[GuitarSolo1]





[Verse 1]



G#m B F# E

G#m B F# E

Wind me up, put me down, start me off and watch me go... [Guitar SOLO1]

G#m B F# E G#m B F# E

I'll be running circles around you sooner than you know... [Guitar SOLO1]

G#m B F# E

A little off centre and i'm out of tune...

G#m B F# E

I'm just kickin this can along the avenue

G#m B F# E

But i'm alright... [GuitarSOLO1]





[Chorus]



E G#m

cause it's easy once you know how it's done

F# G#m

you can't stop now, it's already begun

E G#m F#

you feel it running through your bones...

[NC] G#m B F# E

G#m B F# E

and you jerk it out... [GuitarSolo1] when you jerk it out [GuitarSolo1]





[Verse 2]



G#m B F# E

Shut up, Hush your mouth,Can't you hear you talk too loud

G#m B F# E

No I can't hear nothing cause I got my head up in the clouds

G#m B F# E

I bite off anything that I can chew

G#m B F# E

I'm chasing cars up and down the avenue

G#m B F# E

But that's ok... (GuitarSolo1]





[Chorus]



E G#m

cause it's easy once you know how it's done

F# G#m

you can't stop now, it's already begun

E G#m F#

you feel it running through your bones...

[NC]

and you jerk it out...



[DrumsSolo]

https://www.coveralia.com/acordes/jerk-it-out--ahlund--caesars.php

[GuitarSolo1]

[DrumsSolo]

[GuitarSolo1]





[Chorus]



E G#m

cause it's easy once you know how it's done

F# G#m

you can't stop now, it's already begun

E G#m F#

you feel it running through your bones...

[NC] G#m B F# E

and you jerk it out... [GuitarSolo2]





And you jerk it out } During this time

And you jerk it out } you play a Solo

And you jerk it out } like [GuitarSolo3]

And you jerk it out } all the time up to

Oh baby don't you know you really gotta jerk it out } the end. Synthe-

When you jerk it out baby don't you know you really gotta jerk it out } sizer plays

When you jerk it out baby don't you know you really gotta jerk it out }[SynthesizerSolo1]



[Guitar Solo1]



E|------7--------77----------6--------00------|

B|--9------9----99------7------7----55--------|

G|--------------------------------------------|

D|--------------------------------------------|

A|--------------------------------------------|

E|--------------------------------------------|





[GuitarSolo2]



E|--------------play twice---------------|

B|-12-11-7-2-4---12-14-16-19-------------|

G|---------------------------------------|

D|---------------------------------------|

A|---------------------------------------|

E|---------------------------------------|





[GuitarSolo3]



E |---------------------------------------------------------------|

B |-1-2-2---1-2-2---1-2-2---1-2-2---1-2-2---1-2-2-----------------|

G |---------------------------------------------------------------|

D |---------------------------------------------------------------|

A |---------------------------------------------------------------|

E |---------------------------------------------------------------|





[SynthesizerSolo1]







Letra subida por: Anónimo

Discos en los que aparece este acorde: Paper Tigers

El acorde de Jerk It Out (Åhlund) de Caesars es una versión de la canción original realizada por colaboradores/usuarios de Coveralia.

¿Has encontrado algún error en esta página? Envíanos tu corrección del acorde