música
Buscador

Acorde de Iron Man - The Cardigans

Letra de Iron Man

Chords Used:

          EADGBe
Bb(add9): xx8768

Fmaj7/C:  x3321x

Dm:       557765

F:        133211

Dbm:      446654

Cm:       335543

Gm9:      xx3143

Fmaj9:    1x2x1x


Standar Tunning.

Intro:

e|------------------------------------------------|
B|------------------------------------------------|
G|-------------------5--6-7-----------------------|
D|-----------5--6--7----------/8p7-8p7-8p7--------|
A|-5---5-5-8-------------------------------8--5---|
E|------------------------------------------------|

e|------------------------------------------------|
B|------------------------------------------------|
G|---------------5--6-7---7p6p5-------------------|
D|-------5--6--7----------------7--7-6p5\3--------|
A|-5-5-8-----------------------------------5------|
E|------------------------------------------------|


Bb(add9) Fmaj7/C
Has he   lost his mind? 
Bb(add9)      Fmaj7/C
can he see or is he blind? 
Bb(add9) Fmaj7/C
can he   walk at all?
Bb(add9)        Fmaj7/C
or if he moves, will he fall?

Bb(add9) Fmaj7/C x2

Bb(add9) Fmaj7/C
is he    alive or dead?
Bb(add9)          Fmaj7/C
has he thoughts within his head?
Bb(add9)   Fmaj7/C
we'll just pass him there
Bb(add9)      Fmaj7/C
why should we even care?

Dm Dm F Dm Dbm Cm
               Oh, Iron Man

Dm Dm F Dm Dbm Cm F

(Intro)

Bb(add9) Fmaj7/C
he was   turned to steel
Bb(add9)      Fmaj7/C
in that great magnetic fields
Bb(add9)   Fmaj7/C
when he travelled time
Bb(add9)       Fmaj7/C
for the future of mankind

Bb(add9) Fmaj7/C x2

Bb(add9) Fmaj7/C
now the  time is here
Bb(add9)     Fmaj7/C
for iron man to spread fear
Bb(add9)  Fmaj7/C
vengeance from the grave
Bb(add9)         Fmaj7/C
kills the people he once saved

(Gm9)
Fill 1:
e|-----------|
B|-----------|
G|-----------|
D|-5--8--7---|
A|-----------|
E|-----------| 
nobody wants him
(Fmaj9)
Fill 2:
e|-----------|
B|-----------|
G|-----------|
D|----7--7---|
A|-8---------|
E|-----------|
he just stares at the world

Fill 3:
e|----------------------------|
B|----------------------------|
G|--------------------5-6-7---|
D|-----------5--5-6-7---------|
A|-5--5--5-8------------------|
E|----------------------------|


(Gm9)
(Fill 1)
planning his vengeance
(Fmaj9)
(Fill 2)
that he will soon unfold

(Fill 3)

(Gm9)
(Fill 1) 
no, nobody wants him
(Fmaj9)
(Fill 2)
they just turn their heads

(Fill 3)

(Gm9)
(Fill 1) 
and nobody helps him
(Fmaj9)
(Fill 2)
now he has his revenge

e|----------------------------|
B|----------------------------|
G|--------------------5-6-7---|
D|-----------5--5-6-7---------|
A|-5--5--5-8------------------|
E|----------------------------|

e|----------------------------|
B|----------------------------|
G|--------------7-------------|
D|-----------5----------------|
A|-5--5--5-8------------------|
E|----------------------------|


Bb(add9) Fmaj7/C x4

Bb(add9) Fmaj7/C
heavy    boots of lead
Bb(add9)          Fmaj7/C
fills his victims full of dread
Bb(add9)   Fmaj7/C
running as fast as they can
Bb(add9) Fmaj7/C
iron man lives again

Dm Dm F Dm Dbm Cm
               Oh, Iron Man

Dm Dm F Dm Dbm Cm F

Outro:

e|-----------------------------------------------|
B|-----------------------------------------------|
G|-------------------5--6-7----------------------|
D|-----------5--6--7----------/8p7-8p7-8p7-------|
A|-5---5-5-8-------------------------------8--5--|
E|-----------------------------------------------|

e|-----------------------------------------------------------|
B|-----------------------------------------------------------|
G|--------------------------------------------------5h6h7----|
D|-------5--6------5-6-7-6-5--------5-6-7-6-5--5h6h7---------|
A|-5-5-8-------5-8-----------8--5-8-----------8--------------|
E|-----------------------------------------------------------|


Bb(add9) Fmaj7/C (Fade...)
Do do do do...

references:

| /   slide up
| \   slide down
| h   hammer-on
| p   pull-off



Letra subida por: Anónimo

Discos en los que aparece este acorde: First Band On The Moon

El acorde de Iron Man de The Cardigans es una versión de la canción original realizada por colaboradores/usuarios de Coveralia.

¿Has encontrado algún error en esta página? Envíanos tu corrección del acorde