música
Buscador

Acorde de Iron Maiden - Iron Maiden

Letra de Iron Maiden

A5 

Won't you come in to my room

G5

I wanna show you all my wares

A5

I just want to see your blood

G5

I just want to stand and stare

A5

See the blood begin to flow

G5

As it falls up on the floor

A5

Iron Maiden can't be fought

G5

Iron Maiden can't be sought





Guitarra 1: Riff 1 e Guitarra 2:Riff 2 (x4)





C5 G5

Oh well, wherever

D5 Riff 3

Wherever you are

C5 G5

Iron Maiden's gonna get you

D5 Riff 4

No matter how far

C5 G5

See the blood flow, watch it being shed

D5 Riff3

Up above my head

C5 G5 D5 A5

Iron Maiden wants you for dead



A5

Won't you come in to my room

G5

I wanna show you all my wares

A5

I just want to see your blood

G5

I just want to stand and stare

A5

See the blood begin to flow

G5

As it falls up on the floor

A5

Iron Maiden can't be fought

G5

Iron Maiden can't be sought



C5 G5

Oh well, wherever

D5 Riff 3

Wherever you are

C5 G5

Iron Maiden's gonna get you

D5 Riff 5

No matter how far

C5 G5

See the blood flow, watch it being shed

D5 A5

Up above my head

C5 G5 D5

Iron Maiden wants you for dead





Riff 6 (x1)

Guitarra 1: Riff 6, Guitarra 2: Riff 7, Guitarra 3: Riff 8 (x2)

Guitarra 1: Riff 6, Guitarra 2: Riff 9, Guitarra 3: Riff 10 (x1)

A5, baixo faz um riff 3 vezes e A5 C5 D5

Riff 1 (x2)

Guitarra 1: Riff 1 e Guitarra 2: Riff 2 (x6)





A5

Won't you come in to my room

G5

I wanna show you all my wares

A5

I just want to see your blood

G5

I just want to stand and stare

A5

See the blood begin to flow

G5

As it falls up on the floor

A5

Iron Maiden can't be fought

G5

Iron Maiden can't be sought



C5 G5

Oh well, wherever

D5 A5

Wherever you are

C5 G5

Iron Maiden's gonna get you

D5 A5

No matter how far

https://www.coveralia.com/acordes/iron-maiden-iron-maiden.php

C5 G5

See the blood flow, watch it being shed

D5 A5

Up above my head

C5 G5 D5

Iron Maiden wants you for dead





A5 pra encerrar, ouça a música pra ouvir o ritmo







ocultar esta pestaña Riff 1



E|--------------------0--------------|

B|-----------------------1-----0-----|

G|-2----2--0h2--0-----------2-----0--|

D|-----------------0-----------------|

A|-----------------------------------|

E|-----------------------------------|





Riff 2

E|-----------------------------------|

B|-1----1--0h1--0--------------------|

G|-----------------2--0--------------|

D|-----------------------4--2--0-----|

A|--------------------------------3--|

E|-----------------------------------|





Riff 3

E|------------|

B|-5-----8----|

G|-7b----10b--|

D|------------|

A|------------|

E|------------|





Riff 4

E|-----------------|

B|--5----8----10---|

G|--7b---10b--12b--|

D|-----------------|

A|-----------------|

E|-----------------|





Riff 5

E|------------------|

B|--5----8-----8----|

G|--7b---10b---10b--|

D|------------------|

A|------------------|

E|------------------|





Riff 6

E|--------------------------------------|

B|--------------------------------------|

G|-----------------------------0--2--4--|

D|-----------0--2--3--0--2--3-----------|

A|--0--2--3-----------------------------|

E|--------------------------------------|





Riff 7

E|---------------------------------------------------|

B|--15b--15--13--12--13------------------12--13--15--|

G|-----------------------14------12--14--------------|

D|---------------------------15----------------------|

A|---------------------------------------------------|

E|---------------------------------------------------|





Riff 8

E|--13b--13--12--10--12------------------10--12--13--|

B|-----------------------13--10--12--13--------------|

G|---------------------------------------------------|

D|---------------------------------------------------|

A|---------------------------------------------------|

E|---------------------------------------------------|





Riff 9

E|-------------------------------------------------------|

B|--15b--15--13--12--13-----------------12--13--15--15b--|

G|----------------------14------12--14-------------------|

D|--------------------------15---------------------------|

A|-------------------------------------------------------|

E|-------------------------------------------------------|





Riff 10

E|--13b--13--12--10--12------------------10--12--13--13b--|

B|-----------------------13--10--12--13-------------------|

G|--------------------------------------------------------|

D|--------------------------------------------------------|

A|--------------------------------------------------------|

E|--------------------------------------------------------|

Letra subida por: Anónimo

¿Has encontrado algún error en esta página? Envíanos tu corrección del acorde