música
Buscador

Acorde de Intoxicarme - Airbag

Letra de Intoxicarme

VERSION 1

Tuning: Half step down (Eb Ab Db Gb Bb eb) / Guitarra afinada un semitono abajo



[Riff]

Am C G

1 & 2 & 3 & 4 & 1 & 2 & 3 & 4 & 1 & 2 & 3 & 4 & 1 & 2 & 3 & 4 &

e|----------------------------------------------------------------|

B|----------------------------------------------------------------|

G|----------------------------------------------------------------|

D|-------------------------------7-----------------5---5----------|

A|-----7-----7-7-8-----7-----7-8-------7-----7-7-8-3---3---5---5--|

E|-5-5---5-5-------5-5--5-5-------5-5---5-5----------------3---3--|





[Intro]

| Am | | | C G |

| Am | | | C G |





[Verse 1]

Am

Ey, hacía mucho que no te veía

F E

No lo lograste, yo lo sabía

Am

No te das cuenta de lo que esta pasando, oh

F E

Se mueve el suelo que vas pisando





[Chorus]

Am C G

Te invoqué de tanto pensarte

Am C G

Es tu piel que va a intoxicarme





[Verse 2]

Am

Tus pretensiones te van engañando, oh

F E

Si soy sincero rompes en llanto

Am

Últimas fichas y el juego se termina

F E

Que adrenalina tanta mentira





[Chorus]

Am C G

Te invoqué de tanto pensarte

Am C G Am

Es tu piel que va a intoxicarme, oh oh oh

C G Am C G

Que va a intoxicarme, oh oh oh





[Verse 3]

Am

Estás apurada y a mi nadie me apura, hey

F E

Voy a pasar por tu cintura hasta el amanecer

Am

Será que el vino está tan rico y nos mando a embriagar

F E

Porque al final no nos queda nada





[Bridge]

F E

Aunque nos cueste y cueste

F E

La verdad siempre duele

F E D

Y nunca puede desaparecer

E

Desaparecer





[Solo]

| Am | F E | Am | F E |

| Am | F E | Am | F E |





[Chorus]

Am C G

Te invoqué de tanto pensarte

Am C G Am

Es tu piel que va a intoxicarme

C G Dm Am

Oh oh, oh, que va a intoxicarme

C G Dm Am

Oh oh, oh, que va a intoxicarme

C G Dm Am

Uh uh, uh oh oh oh oh, oh.



----------------------------------------------------

https://www.coveralia.com/acordes/intoxicarme-airbag.php


VERSION 2

Tuning: Standard (E A D G B e) / Afinación estándar



[Riff]

G#m B F#

1 & 2 & 3 & 4 & 1 & 2 & 3 & 4 & 1 & 2 & 3 & 4 & 1 & 2 & 3 & 4 &

e|----------------------------------------------------------------|

B|----------------------------------------------------------------|

G|----------------------------------------------------------------|

D|-------------------------------6-----------------4---4----------|

A|-----6-----6-6-7-----6-----6-7-------6-----6-6-7-2---2---4---4--|

E|-4-4---4-4-------4-4---4-4-------4-4---4-4---------------2---2--|





[Intro]

| G#m | | | B F# |

| G#m | | | B F# |





[Verse 1]

G#m

Ey, hacía mucho que no te veía

E D#

No lo lograste, yo lo sabía

G#m

No te das cuenta de lo que esta pasando, oh

E D#

Se mueve el suelo que vas pisando





[Chorus]

G#m B F#

Te invoqué de tanto pensarte

G#m B F#

Es tu piel que va a intoxicarme





[Verse 2]

G#m

Tus pretensiones te van engañando, oh

E D#

Si soy sincero rompes en llanto

G#m

Últimas fichas y el juego se termina

E D#

Que adrenalina tanta mentira





[Chorus]

G#m B F#

Te invoqué de tanto pensarte

G#m B F# G#m

Es tu piel que va a intoxicarme, oh oh oh

B F# G#m B F#

Que va a intoxicarme, oh oh oh





[Verse 3]

G#m

Estás apurada y a mi nadie me apura, hey

E D#

Voy a pasar por tu cintura hasta el amanecer

G#m

Será que el vino está tan rico y nos mando a embriagar

E D#

Porque al final no nos queda nada





[Bridge]

E D#

Aunque nos cueste y cueste

E D#

La verdad siempre duele

E D# C#

Y nunca puede desaparecer

D#

Desaparecer





[Solo]

| G#m | E D# | G#m | E D# |

| G#m | E D# | G#m | E D# |





[Chorus]

G#m B F#

Te invoqué de tanto pensarte

G#m B F# G#m

Es tu piel que va a intoxicarme

B F# C#m G#m

Oh oh, oh, que va a intoxicarme

B F# C#m G#m

Oh oh, oh, que va a intoxicarme

B F# C#m G#m

Uh uh, uh oh oh oh oh, oh.

Discos en los que aparece este acorde: Al Parecer Todo Ha Sido Una Trampa

El acorde de Intoxicarme de Airbag es una versión de la canción original realizada por colaboradores/usuarios de Coveralia.

¿Has encontrado algún error en esta página? Envíanos tu corrección del acorde