música
Buscador

Acorde de Intoxicado - Viejas Locas

Letra de Intoxicado







INTRO (SE REPITE 2 VECES)

C5 A5

1-------------------------

2---------------8---------

3----5------4/9-9---------

4----5--7-----------------

5----3--7-----------------

6-------5-----------------



C5 A5

1-------------------------

2------------8-8-8-8-7-5--

3----5-------9-9-9-9-7-5--

4----5--7-----------------

5----3--7-----------------

6-------5-----------------





C5 A5 A5 A5

a nadie importa si yo cuido mi flor

C5 As A5 A5

yo la protejo contra el viento

C5 A5 A5 A5

la riego Un poco y la llevo al sol

y con su fruto



D5 A5

intoxicado estoy y por las calles voy---¡

D5 A5 ¡ ESTO SE TOCA

EN FORMA DE ROCANROL

intoxicado estoy y por las calles voy---¡

https://www.coveralia.com/acordes/intoxicado-viejas-locas.php



INTRO

(EL TEMA CUANDO SE CANTA ES TODO IGUAL)



un mezcladito que te va a gustar

con su veneno ella juega

una flor muerta como las demas

y con su fruto



D5 A5

intoxicado estas y por las calles vas-----¡

D5 A5 ¡ ESTO SE TOCA

EN FORMA DE ROCANROL

intoxicado estas y por las calles vas-----¡



Solo (hay partes q son iguales y hay otras q no,

pero en si esta bien sacado)



1) ---------------------------------------------------------------------|

2) -5----55----55----55------5-7-----5-7--------------------------------|

3) ---7b----7b----7b----7b---5-7-----5-7--------------------------------|

4) ------------------------------5-7------------------------------------|

5) ---------------------------------------------------------------------|

6) ---------------------------------------------------------------------|



1) ---------------------------------------------------------------------|

2) -5---55----55----55---55----------7b-5---------7-----7------7-5------|

3) --7b----7b----7b---7b---------5h7------7-5--5h7---5h7---5h7-----7-5--|

4) --------------------------5h7…---------------------------------------|

5) ---------------------------------------------------------------------|

6) ---------------------------------------------------------------------|

SIMBOLOGIA: b :estirar,… :silencio, h :ligado descendente

Letra subida por: Anónimo

Discos en los que aparece este acorde: Viejas Locas , Sigue Pegando , Viejas Locas (Dvd)

El acorde de Intoxicado de Viejas Locas es una versión de la canción original realizada por colaboradores/usuarios de Coveralia.

¿Has encontrado algún error en esta página? Envíanos tu corrección del acorde