Quantcast
música
Buscador

Acorde de Intocable 2008 - Aleks Syntek

Letra de Intocable 2008

Intocable

AFINACION:ESTANDAR

Intro:
   Riff 1   X(2)

Riff 1
    Bb         F             Gm                 Dm        Eb
e--13----------13------------13-----------11p10---------11p10------|
B-----10-9-10-----10-9-10-------10-9-10--------13-11---------13-11-|
G------------------------------------------------------------------|
D------------------------------------------------------------------|
A------------------------------------------------------------------|
E------------------------------------------------------------------|

1°RA ESTROFA

Bb    F         Gm
Yo no sé que sucedió,
       Dm        Eb
nunca supe la verdad,
                   F
la razón de tus motivos.

Bb    F         Gm
Si en el juego del amor,
 Dm        Eb
ahora soy el perdedor,
                F
debo salir adelante.


CORO
Eb       F
Pero me voy,
      Bb          F          Eb
me marcho porque fue tu decisión,
      F
te amaré,
      Bb            F          Gm
lo haré si es necesario por los dos,
GmMagj7          Gm
que aquí en mi corazón,
GmMagj7          Gm F C
no te voy a olvidar,
                     Gm
pues de ahora en adelante,
 F               Bb
intocable es tu lugar.







SE REPITE INTRO:

Intro:
   Riff 1   X(2)


Riff 1
        Bb         F             Gm            Dm          Eb
e--13----------13------------13-----------11p10---------11p10-------|
B-----10-9-10-----10-9-10-------10-9-10---------13-11---------13-11-|
G-------------------------------------------------------------------|
D-------------------------------------------------------------------|
A-------------------------------------------------------------------|
E-------------------------------------------------------------------|





Bb     F          Gm
Debes confundida estar,
     Dm           Eb
terminar por terminar,
     F
Pero yo te lo respeto.
Bm    F           Gm
Y lo que me pidas tú,
         Dm          Eb
si eso te hace más feliz,
                  F
para mí es algo sagrado.


CORO (2 voces)

CORO
Eb       F
Pero me voy,
      Bb          F          Eb
me marcho porque fue tu decisión,
      F
te amaré,
      Bb            F          Gm
lo haré si es necesario por los dos,
GmMagj7          Gm
que aquí en mi corazón,
GmMagj7          Gm F C
no te voy a olvidar,
                     Gm
pues de ahora en adelante,
 F               Bb
intocable es tu lugar.

FINAL:

Intro:
Riff 1   X(2)

Riff 1

   intocable es tu lugar [3]      intocable es tu lugar [3]

    Bb         F             Gm            Dm          Eb
e--13----------13------------13-----------11p10--------11p10-------|
B-----10-9-10-----10-9-10-------10-9-10--------13-11---------13-11-|
G------------------------------------------------------------------|
D------------------------------------------------------------------|
A------------------------------------------------------------------|
E------------------------------------------------------------------|



ACORDES:

    Bb      F    Gm   Dm   Eb   GmMagj7   C     Cm
e---1-------1-----3----1----6------4-------0-----3---------------|
B---3-------1-----3----2----8------4-------1-----4---------------|
G---3-------2-----3----3----8------4-------0-----5---------------|
D---3-------3-----5----0----8------5-------2-----5---------------|
A---1-------3-----5---------6------6-------3-----3---------------|
E---1-------1-----3---------6------4-------0-----3---------------|




Letra subida por: Anónimo

Discos en los que aparece este acorde: Singles

El acorde de Intocable 2008 de Aleks Syntek es una versión de la canción original realizada por colaboradores/usuarios de Coveralia.

¿Has encontrado algún error en esta página? Envíanos tu corrección del acorde